  0
SECTION
  2
HEADER
  9
$ACADVER
  1
AC1015
  9
$ACADMAINTVER
 70
    20
  9
$DWGCODEPAGE
  3
ANSI_932
  9
$INSBASE
 10
0.0
 20
0.0
 30
0.0
  9
$EXTMIN
 10
826.546435
 20
484.7927859999998
 30
0.0
  9
$EXTMAX
 10
1018.546435
 20
765.9149150000002
 30
0.0
  9
$LIMMIN
 10
826.545448
 20
484.791786
  9
$LIMMAX
 10
1018.547448
 20
765.915917
  9
$ORTHOMODE
 70
     1
  9
$REGENMODE
 70
     1
  9
$FILLMODE
 70
     1
  9
$QTEXTMODE
 70
     0
  9
$MIRRTEXT
 70
     0
  9
$LTSCALE
 40
4.685369
  9
$ATTMODE
 70
     1
  9
$TEXTSIZE
 40
3.2
  9
$TRACEWID
 40
0.05
  9
$TEXTSTYLE
  7
高3.2
  9
$CLAYER
  8
0
  9
$CELTYPE
  6
CONTINUOUS
  9
$CECOLOR
 62
   256
  9
$CELTSCALE
 40
1.0
  9
$DISPSILH
 70
     0
  9
$DIMSCALE
 40
1.0
  9
$DIMASZ
 40
2.5
  9
$DIMEXO
 40
0.25
  9
$DIMDLI
 40
0.2
  9
$DIMRND
 40
0.0
  9
$DIMDLE
 40
0.0
  9
$DIMEXE
 40
1.25
  9
$DIMTP
 40
0.0
  9
$DIMTM
 40
0.0
  9
$DIMTXT
 40
3.0
  9
$DIMCEN
 40
0.0
  9
$DIMTSZ
 40
0.0
  9
$DIMTOL
 70
     0
  9
$DIMLIM
 70
     0
  9
$DIMTIH
 70
     0
  9
$DIMTOH
 70
     0
  9
$DIMSE1
 70
     0
  9
$DIMSE2
 70
     0
  9
$DIMTAD
 70
     3
  9
$DIMZIN
 70
     8
  9
$DIMBLK
  1
Open30
  9
$DIMASO
 70
     1
  9
$DIMSHO
 70
     1
  9
$DIMPOST
  1

  9
$DIMAPOST
  1

  9
$DIMALT
 70
     0
  9
$DIMALTD
 70
     3
  9
$DIMALTF
 40
0.03937007874016
  9
$DIMLFAC
 40
2.0
  9
$DIMTOFL
 70
     1
  9
$DIMTVP
 40
0.0
  9
$DIMTIX
 70
     0
  9
$DIMSOXD
 70
     0
  9
$DIMSAH
 70
     0
  9
$DIMBLK1
  1

  9
$DIMBLK2
  1

  9
$DIMSTYLE
  2
1／2
  9
$DIMCLRD
 70
     0
  9
$DIMCLRE
 70
     0
  9
$DIMCLRT
 70
     4
  9
$DIMTFAC
 40
1.0
  9
$DIMGAP
 40
0.625
  9
$DIMJUST
 70
     0
  9
$DIMSD1
 70
     0
  9
$DIMSD2
 70
     0
  9
$DIMTOLJ
 70
     0
  9
$DIMTZIN
 70
     8
  9
$DIMALTZ
 70
     0
  9
$DIMALTTZ
 70
     0
  9
$DIMUPT
 70
     1
  9
$DIMDEC
 70
     2
  9
$DIMTDEC
 70
     2
  9
$DIMALTU
 70
     2
  9
$DIMALTTD
 70
     3
  9
$DIMTXSTY
  7
STANDARD
  9
$DIMAUNIT
 70
     0
  9
$DIMADEC
 70
     1
  9
$DIMALTRND
 40
0.0
  9
$DIMAZIN
 70
     2
  9
$DIMDSEP
 70
    46
  9
$DIMATFIT
 70
     0
  9
$DIMFRAC
 70
     0
  9
$DIMLDRBLK
  1
Open30
  9
$DIMLUNIT
 70
     2
  9
$DIMLWD
 70
    -2
  9
$DIMLWE
 70
    -2
  9
$DIMTMOVE
 70
     0
  9
$LUNITS
 70
     2
  9
$LUPREC
 70
     4
  9
$SKETCHINC
 40
0.1
  9
$FILLETRAD
 40
0.0
  9
$AUNITS
 70
     0
  9
$AUPREC
 70
     0
  9
$MENU
  1
.
  9
$ELEVATION
 40
0.0
  9
$PELEVATION
 40
0.0
  9
$THICKNESS
 40
0.0
  9
$LIMCHECK
 70
     0
  9
$CHAMFERA
 40
0.0
  9
$CHAMFERB
 40
0.0
  9
$CHAMFERC
 40
0.0
  9
$CHAMFERD
 40
0.0
  9
$SKPOLY
 70
     0
  9
$TDCREATE
 40
2456071.638008276
  9
$TDUCREATE
 40
2456071.263008276
  9
$TDUPDATE
 40
2456850.658559398
  9
$TDUUPDATE
 40
2456850.283559398
  9
$TDINDWG
 40
0.0175887963
  9
$TDUSRTIMER
 40
0.0175887963
  9
$USRTIMER
 70
     1
  9
$ANGBASE
 50
0.0
  9
$ANGDIR
 70
     0
  9
$PDMODE
 70
     0
  9
$PDSIZE
 40
0.0
  9
$PLINEWID
 40
0.0
  9
$SPLFRAME
 70
     0
  9
$SPLINETYPE
 70
     6
  9
$SPLINESEGS
 70
     8
  9
$HANDSEED
  5
6A5
  9
$SURFTAB1
 70
     6
  9
$SURFTAB2
 70
     6
  9
$SURFTYPE
 70
     6
  9
$SURFU
 70
     6
  9
$SURFV
 70
     6
  9
$UCSBASE
  2

  9
$UCSNAME
  2

  9
$UCSORG
 10
0.0
 20
0.0
 30
0.0
  9
$UCSXDIR
 10
1.0
 20
0.0
 30
0.0
  9
$UCSYDIR
 10
0.0
 20
1.0
 30
0.0
  9
$UCSORTHOREF
  2

  9
$UCSORTHOVIEW
 70
     0
  9
$UCSORGTOP
 10
0.0
 20
0.0
 30
0.0
  9
$UCSORGBOTTOM
 10
0.0
 20
0.0
 30
0.0
  9
$UCSORGLEFT
 10
0.0
 20
0.0
 30
0.0
  9
$UCSORGRIGHT
 10
0.0
 20
0.0
 30
0.0
  9
$UCSORGFRONT
 10
0.0
 20
0.0
 30
0.0
  9
$UCSORGBACK
 10
0.0
 20
0.0
 30
0.0
  9
$PUCSBASE
  2

  9
$PUCSNAME
  2

  9
$PUCSORG
 10
0.0
 20
0.0
 30
0.0
  9
$PUCSXDIR
 10
1.0
 20
0.0
 30
0.0
  9
$PUCSYDIR
 10
0.0
 20
1.0
 30
0.0
  9
$PUCSORTHOREF
  2

  9
$PUCSORTHOVIEW
 70
     0
  9
$PUCSORGTOP
 10
0.0
 20
0.0
 30
0.0
  9
$PUCSORGBOTTOM
 10
0.0
 20
0.0
 30
0.0
  9
$PUCSORGLEFT
 10
0.0
 20
0.0
 30
0.0
  9
$PUCSORGRIGHT
 10
0.0
 20
0.0
 30
0.0
  9
$PUCSORGFRONT
 10
0.0
 20
0.0
 30
0.0
  9
$PUCSORGBACK
 10
0.0
 20
0.0
 30
0.0
  9
$USERI1
 70
     0
  9
$USERI2
 70
     0
  9
$USERI3
 70
     0
  9
$USERI4
 70
     0
  9
$USERI5
 70
     0
  9
$USERR1
 40
0.0
  9
$USERR2
 40
0.0
  9
$USERR3
 40
0.0
  9
$USERR4
 40
0.0
  9
$USERR5
 40
0.0
  9
$WORLDVIEW
 70
     1
  9
$SHADEDGE
 70
     3
  9
$SHADEDIF
 70
    70
  9
$TILEMODE
 70
     1
  9
$MAXACTVP
 70
    64
  9
$PINSBASE
 10
0.0
 20
0.0
 30
0.0
  9
$PLIMCHECK
 70
     0
  9
$PEXTMIN
 10
1.000000000000000E+20
 20
1.000000000000000E+20
 30
1.000000000000000E+20
  9
$PEXTMAX
 10
-1.000000000000000E+20
 20
-1.000000000000000E+20
 30
-1.000000000000000E+20
  9
$PLIMMIN
 10
0.0
 20
0.0
  9
$PLIMMAX
 10
12.0
 20
9.0
  9
$UNITMODE
 70
     0
  9
$VISRETAIN
 70
     1
  9
$PLINEGEN
 70
     0
  9
$PSLTSCALE
 70
     1
  9
$TREEDEPTH
 70
  3020
  9
$CMLSTYLE
  2
Standard
  9
$CMLJUST
 70
     0
  9
$CMLSCALE
 40
1.0
  9
$PROXYGRAPHICS
 70
     1
  9
$MEASUREMENT
 70
     0
  9
$CELWEIGHT
370
    -1
  9
$ENDCAPS
280
     0
  9
$JOINSTYLE
280
     0
  9
$LWDISPLAY
290
     0
  9
$INSUNITS
 70
     0
  9
$HYPERLINKBASE
  1

  9
$STYLESHEET
  1

  9
$XEDIT
290
     1
  9
$CEPSNTYPE
380
     0
  9
$PSTYLEMODE
290
     1
  9
$FINGERPRINTGUID
  2
{647868FE-E3BB-445A-B86A-502B6A48FD16}
  9
$VERSIONGUID
  2
{1368DDDA-099D-4F52-8A7E-0F5934670B4F}
  9
$EXTNAMES
290
     1
  9
$PSVPSCALE
 40
0.0
  9
$OLESTARTUP
290
     0
  0
ENDSEC
  0
SECTION
  2
CLASSES
  0
CLASS
  1
ACDBDICTIONARYWDFLT
  2
AcDbDictionaryWithDefault
  3
ObjectDBX Classes
 90
        0
280
     0
281
     0
  0
CLASS
  1
MATERIAL
  2
AcDbMaterial
  3
ObjectDBX Classes
 90
     1153
280
     0
281
     0
  0
CLASS
  1
VISUALSTYLE
  2
AcDbVisualStyle
  3
ObjectDBX Classes
 90
     4095
280
     0
281
     0
  0
CLASS
  1
SCALE
  2
AcDbScale
  3
ObjectDBX Classes
 90
     1153
280
     0
281
     0
  0
CLASS
  1
TABLESTYLE
  2
AcDbTableStyle
  3
ObjectDBX Classes
 90
     4095
280
     0
281
     0
  0
CLASS
  1
MLEADERSTYLE
  2
AcDbMLeaderStyle
  3
ACDB_MLEADERSTYLE_CLASS
 90
     4095
280
     0
281
     0
  0
CLASS
  1
SORTENTSTABLE
  2
AcDbSortentsTable
  3
ObjectDBX Classes
 90
        0
280
     0
281
     0
  0
CLASS
  1
DICTIONARYVAR
  2
AcDbDictionaryVar
  3
ObjectDBX Classes
 90
        0
280
     0
281
     0
  0
CLASS
  1
CELLSTYLEMAP
  2
AcDbCellStyleMap
  3
ObjectDBX Classes
 90
     1152
280
     0
281
     0
  0
CLASS
  1
ACDBPLACEHOLDER
  2
AcDbPlaceHolder
  3
ObjectDBX Classes
 90
        0
280
     0
281
     0
  0
CLASS
  1
LAYOUT
  2
AcDbLayout
  3
ObjectDBX Classes
 90
        0
280
     0
281
     0
  0
ENDSEC
  0
SECTION
  2
TABLES
  0
TABLE
  2
VPORT
  5
8
330
0
100
AcDbSymbolTable
 70
     1
  0
VPORT
  5
8B
330
8
100
AcDbSymbolTableRecord
100
AcDbViewportTableRecord
  2
*Active
 70
     0
 10
0.0
 20
0.0
 11
1.0
 21
1.0
 12
1014.492601059658
 22
594.6325415633557
 13
0.0
 23
0.0
 14
1.0
 24
1.0
 15
0.0
 25
0.0
 16
0.0
 26
0.0
 36
1.0
 17
0.0
 27
0.0
 37
0.0
 40
547.9361027719483
 41
2.173835125448028
 42
50.0
 43
0.0
 44
0.0
 50
0.0
 51
0.0
 71
     0
 72
   100
 73
     1
 74
     1
 75
     0
 76
     0
 77
     0
 78
     0
281
     0
 65
     1
110
0.0
120
0.0
130
0.0
111
1.0
121
0.0
131
0.0
112
0.0
122
1.0
132
0.0
 79
     0
146
0.0
  0
ENDTAB
  0
TABLE
  2
LTYPE
  5
5
330
0
100
AcDbSymbolTable
 70
     1
  0
LTYPE
  5
5A
330
5
100
AcDbSymbolTableRecord
100
AcDbLinetypeTableRecord
  2
ByBlock
 70
     0
  3

 72
    65
 73
     0
 40
0.0
  0
LTYPE
  5
5B
330
5
100
AcDbSymbolTableRecord
100
AcDbLinetypeTableRecord
  2
ByLayer
 70
     0
  3

 72
    65
 73
     0
 40
0.0
  0
LTYPE
  5
5C
330
5
100
AcDbSymbolTableRecord
100
AcDbLinetypeTableRecord
  2
CONTINUOUS
 70
     0
  3
Solid-line
 72
    65
 73
     0
 40
0.0
  0
ENDTAB
  0
TABLE
  2
LAYER
  5
2
102
{ACAD_XDICTIONARY
360
2E1
102
}
330
0
100
AcDbSymbolTable
 70
     2
  0
LAYER
  5
54
102
{ACAD_XDICTIONARY
360
4D9
102
}
330
2
100
AcDbSymbolTableRecord
100
AcDbLayerTableRecord
  2
0
 70
     0
 62
     7
  6
CONTINUOUS
370
    -3
390
F
  0
LAYER
  5
2CC
330
2
100
AcDbSymbolTableRecord
100
AcDbLayerTableRecord
  2
Defpoints
 70
     0
 62
     7
  6
CONTINUOUS
290
     0
370
    -3
390
F
  0
ENDTAB
  0
TABLE
  2
STYLE
  5
3
330
0
100
AcDbSymbolTable
 70
     5
  0
STYLE
  5
55
330
3
100
AcDbSymbolTableRecord
100
AcDbTextStyleTableRecord
  2
STANDARD
 70
     0
 40
0.0
 41
1.0
 50
0.0
 71
     0
 42
0.2
  3
TXT
  4
BIGFONT
  0
STYLE
  5
2CD
330
3
100
AcDbSymbolTableRecord
100
AcDbTextStyleTableRecord
  2
高3.2
 70
     0
 40
3.2
 41
1.0
 50
0.0
 71
     0
 42
3.2
  3
txt.shx
  4
bigfont.shx
  0
STYLE
  5
2CE
330
3
100
AcDbSymbolTableRecord
100
AcDbTextStyleTableRecord
  2
高6.3
 70
     0
 40
6.299999999999998
 41
1.0
 50
0.0
 71
     0
 42
6.299999999999998
  3
txt.shx
  4
bigfont.shx
  0
STYLE
  5
2D0
330
3
100
AcDbSymbolTableRecord
100
AcDbTextStyleTableRecord
  2
高4.5
 70
     0
 40
4.5
 41
1.0
 50
0.0
 71
     0
 42
6.299999999999998
  3
txt.shx
  4
bigfont.shx
  0
STYLE
  5
2D1
330
3
100
AcDbSymbolTableRecord
100
AcDbTextStyleTableRecord
  2
高2
 70
     0
 40
2.0
 41
1.0
 50
0.0
 71
     0
 42
2.0
  3
txt.shx
  4
bigfont.shx
  0
ENDTAB
  0
TABLE
  2
VIEW
  5
6
330
0
100
AcDbSymbolTable
 70
     0
  0
ENDTAB
  0
TABLE
  2
UCS
  5
7
330
0
100
AcDbSymbolTable
 70
     0
  0
ENDTAB
  0
TABLE
  2
APPID
  5
9
330
0
100
AcDbSymbolTable
 70
    10
  0
APPID
  5
56
330
9
100
AcDbSymbolTableRecord
100
AcDbRegAppTableRecord
  2
ACAD
 70
     0
  0
APPID
  5
5D
330
9
100
AcDbSymbolTableRecord
100
AcDbRegAppTableRecord
  2
AcadAnnotative
 70
     0
  0
APPID
  5
2DC
330
9
100
AcDbSymbolTableRecord
100
AcDbRegAppTableRecord
  2
ACAD_DSTYLE_DIMJOGGED_JOGANGLE_SYMBOL
 70
     0
  0
APPID
  5
2DD
330
9
100
AcDbSymbolTableRecord
100
AcDbRegAppTableRecord
  2
ACAD_DSTYLE_DIMJAG
 70
     0
  0
APPID
  5
2DE
330
9
100
AcDbSymbolTableRecord
100
AcDbRegAppTableRecord
  2
ACAD_DSTYLE_DIMBREAK
 70
     0
  0
APPID
  5
2DF
330
9
100
AcDbSymbolTableRecord
100
AcDbRegAppTableRecord
  2
ACAD_DSTYLE_DIMTALN
 70
     0
  0
APPID
  5
4D1
330
9
100
AcDbSymbolTableRecord
100
AcDbRegAppTableRecord
  2
ACAD_EXEMPT_FROM_CAD_STANDARDS
 70
     0
  0
APPID
  5
521
330
9
100
AcDbSymbolTableRecord
100
AcDbRegAppTableRecord
  2
ACAD_MLEADERVER
 70
     0
  0
APPID
  5
526
330
9
100
AcDbSymbolTableRecord
100
AcDbRegAppTableRecord
  2
ACAD_DSTYLE_DIMARC_LENGTH_SYMBOL
 70
     0
  0
APPID
  5
527
330
9
100
AcDbSymbolTableRecord
100
AcDbRegAppTableRecord
  2
ACAD_DSTYLE_DIMEXT_LENGTH
 70
     0
  0
ENDTAB
  0
TABLE
  2
DIMSTYLE
  5
A
330
0
100
AcDbSymbolTable
 70
     2
100
AcDbDimStyleTable
 71
     1
340
2D6
  0
DIMSTYLE
105
57
330
A
100
AcDbSymbolTableRecord
100
AcDbDimStyleTableRecord
  2
Standard
 70
     0
340
55
  0
DIMSTYLE
105
2D6
330
A
100
AcDbSymbolTableRecord
100
AcDbDimStyleTableRecord
  2
1／2
 70
     0
 41
2.5
 42
0.25
 43
0.2
 44
1.25
 73
     0
 74
     0
 77
     3
 78
     8
 79
     2
140
3.0
141
0.0
143
0.03937007874016
144
2.0
147
0.625
171
     3
172
     1
178
     4
179
     1
271
     2
272
     2
274
     3
283
     0
284
     8
288
     1
289
     0
340
55
341
23C
342
23C
1001
ACAD_DSTYLE_DIMARC_LENGTH_SYMBOL
1070
   379
1070
     2
1001
ACAD_DSTYLE_DIMEXT_LENGTH
1070
   378
1040
1.25
1001
ACAD_DSTYLE_DIMJOGGED_JOGANGLE_SYMBOL
1070
   384
1040
1.570796326794896
  0
ENDTAB
  0
TABLE
  2
BLOCK_RECORD
  5
1
330
0
100
AcDbSymbolTable
 70
     3
  0
BLOCK_RECORD
  5
6B
102
{ACAD_XDICTIONARY
360
612
102
}
330
1
100
AcDbSymbolTableRecord
100
AcDbBlockTableRecord
  2
*Model_Space
340
6E
  0
BLOCK_RECORD
  5
67
330
1
100
AcDbSymbolTableRecord
100
AcDbBlockTableRecord
  2
*Paper_Space
340
6A
  0
BLOCK_RECORD
  5
23C
330
1
100
AcDbSymbolTableRecord
100
AcDbBlockTableRecord
  2
_Open30
340
0
102
{BLKREFS
331
5BD
331
5BE
331
5C6
331
5C7
102
}
  0
BLOCK_RECORD
  5
449
330
1
100
AcDbSymbolTableRecord
100
AcDbBlockTableRecord
  2
*D1
340
0
  0
BLOCK_RECORD
  5
456
330
1
100
AcDbSymbolTableRecord
100
AcDbBlockTableRecord
  2
*D2
340
0
  0
ENDTAB
  0
ENDSEC
  0
SECTION
  2
BLOCKS
  0
BLOCK
  5
6C
330
6B
100
AcDbEntity
  8
0
100
AcDbBlockBegin
  2
*Model_Space
 70
     0
 10
0.0
 20
0.0
 30
0.0
  3
*Model_Space
  1

  0
ENDBLK
  5
6D
330
6B
100
AcDbEntity
  8
0
100
AcDbBlockEnd
  0
BLOCK
  5
68
330
67
100
AcDbEntity
 67
     1
  8
0
100
AcDbBlockBegin
  2
*Paper_Space
 70
     0
 10
0.0
 20
0.0
 30
0.0
  3
*Paper_Space
  1

  0
ENDBLK
  5
69
330
67
100
AcDbEntity
 67
     1
  8
0
100
AcDbBlockEnd
  0
BLOCK
  5
23D
330
23C
100
AcDbEntity
  8
0
100
AcDbBlockBegin
  2
_Open30
 70
     0
 10
0.0
 20
0.0
 30
0.0
  3
_Open30
  1

  0
LINE
  5
23E
330
23C
100
AcDbEntity
  8
0
  6
ByBlock
 62
     0
370
    -2
100
AcDbLine
 10
-1.0
 20
0.267949
 30
0.0
 11
0.0
 21
0.0
 31
0.0
  0
LINE
  5
23F
330
23C
100
AcDbEntity
  8
0
  6
ByBlock
 62
     0
370
    -2
100
AcDbLine
 10
0.0
 20
0.0
 30
0.0
 11
-1.0
 21
-0.267949
 31
0.0
  0
LINE
  5
240
330
23C
100
AcDbEntity
  8
0
  6
ByBlock
 62
     0
370
    -2
100
AcDbLine
 10
0.0
 20
0.0
 30
0.0
 11
-1.0
 21
0.0
 31
0.0
  0
ENDBLK
  5
241
330
23C
100
AcDbEntity
  8
0
100
AcDbBlockEnd
  0
BLOCK
  5
44A
330
449
100
AcDbEntity
  8
0
100
AcDbBlockBegin
  2
*D1
 70
     1
 10
0.0
 20
0.0
 30
0.0
  3
*D1
  1

  0
LINE
  5
5BA
330
449
100
AcDbEntity
  8
0
 62
     0
370
    -2
100
AcDbLine
 10
898.932055129118
 20
577.3668008964907
 30
0.0
 11
864.7968872719747
 21
577.3668008964907
 31
0.0
  0
LINE
  5
5BB
330
449
100
AcDbEntity
  8
0
 62
     0
370
    -2
100
AcDbLine
 10
881.8070551291178
 20
699.8668008964907
 30
0.0
 11
864.7968872719747
 21
699.8668008964907
 31
0.0
  0
LINE
  5
5BC
330
449
100
AcDbEntity
  8
0
 62
     0
370
    -2
100
AcDbLine
 10
866.0468872719748
 20
579.8668008964908
 30
0.0
 11
866.0468872719748
 21
697.3668008964907
 31
0.0
  0
INSERT
  5
5BD
330
449
100
AcDbEntity
  8
0
 62
     0
370
    -2
100
AcDbBlockReference
  2
_Open30
 10
866.0468872719748
 20
577.3668008964907
 30
0.0
 41
2.5
 42
2.5
 43
2.5
 50
270.0
  0
INSERT
  5
5BE
330
449
100
AcDbEntity
  8
0
 62
     0
370
    -2
100
AcDbBlockReference
  2
_Open30
 10
866.0468872719748
 20
699.8668008964907
 30
0.0
 41
2.5
 42
2.5
 43
2.5
 50
90.0
  0
MTEXT
  5
5BF
330
449
100
AcDbEntity
  8
0
 62
     4
100
AcDbMText
 10
863.9218872719746
 20
638.616800896491
 30
0.0
 40
3.0
 41
0.0
 71
     5
 72
     1
  1
245
 11
0.0000000000000001
 21
1.0
 31
0.0
 73
     1
 44
1.0
1001
ACAD
1000
MTEXTBEGIN
1070
    73
1070
     1
1070
    44
1040
1.0
1070
    74
1070
     0
1000
MTEXTEND
  0
POINT
  5
5C0
330
449
100
AcDbEntity
  8
Defpoints
 62
     0
100
AcDbPoint
 10
899.182055129118
 20
577.3668008964907
 30
0.0
  0
POINT
  5
5C1
330
449
100
AcDbEntity
  8
Defpoints
 62
     0
100
AcDbPoint
 10
882.0570551291179
 20
699.8668008964907
 30
0.0
  0
POINT
  5
5C2
330
449
100
AcDbEntity
  8
Defpoints
 62
     0
100
AcDbPoint
 10
866.0468872719748
 20
699.8668008964907
 30
0.0
  0
ENDBLK
  5
44B
330
449
100
AcDbEntity
  8
0
100
AcDbBlockEnd
  0
BLOCK
  5
457
330
456
100
AcDbEntity
  8
0
100
AcDbBlockBegin
  2
*D2
 70
     1
 10
0.0
 20
0.0
 30
0.0
  3
*D2
  1

  0
LINE
  5
5C3
330
456
100
AcDbEntity
  8
0
 62
     0
370
    -2
100
AcDbLine
 10
871.057055129118
 20
587.3668008964907
 30
0.0
 11
871.057055129118
 21
569.9925294679192
 31
0.0
  0
LINE
  5
5C4
330
456
100
AcDbEntity
  8
0
 62
     0
370
    -2
100
AcDbLine
 10
931.057055129118
 20
587.3668008964907
 30
0.0
 11
931.057055129118
 21
569.9925294679192
 31
0.0
  0
LINE
  5
5C5
330
456
100
AcDbEntity
  8
0
 62
     0
370
    -2
100
AcDbLine
 10
873.557055129118
 20
571.2425294679191
 30
0.0
 11
928.5570551291179
 21
571.2425294679191
 31
0.0
  0
INSERT
  5
5C6
330
456
100
AcDbEntity
  8
0
 62
     0
370
    -2
100
AcDbBlockReference
  2
_Open30
 10
871.057055129118
 20
571.2425294679191
 30
0.0
 41
2.5
 42
2.5
 43
2.5
 50
180.0
  0
INSERT
  5
5C7
330
456
100
AcDbEntity
  8
0
 62
     0
370
    -2
100
AcDbBlockReference
  2
_Open30
 10
931.057055129118
 20
571.2425294679191
 30
0.0
 41
2.5
 42
2.5
 43
2.5
  0
MTEXT
  5
5C8
330
456
100
AcDbEntity
  8
0
 62
     4
100
AcDbMText
 10
901.0570551291179
 20
573.3675294679192
 30
0.0
 40
3.0
 41
0.0
 71
     5
 72
     1
  1
120
 73
     1
 44
1.0
1001
ACAD
1000
MTEXTBEGIN
1070
    73
1070
     1
1070
    44
1040
1.0
1070
    74
1070
     0
1000
MTEXTEND
  0
POINT
  5
5C9
330
456
100
AcDbEntity
  8
Defpoints
 62
     0
100
AcDbPoint
 10
871.057055129118
 20
587.6168008964907
 30
0.0
  0
POINT
  5
5CA
330
456
100
AcDbEntity
  8
Defpoints
 62
     0
100
AcDbPoint
 10
931.057055129118
 20
587.6168008964907
 30
0.0
  0
POINT
  5
5CB
330
456
100
AcDbEntity
  8
Defpoints
 62
     0
100
AcDbPoint
 10
931.057055129118
 20
571.2425294679191
 30
0.0
  0
ENDBLK
  5
458
330
456
100
AcDbEntity
  8
0
100
AcDbBlockEnd
  0
ENDSEC
  0
SECTION
  2
ENTITIES
  0
LINE
  5
E1
330
6B
100
AcDbEntity
  8
0
 62
     3
100
AcDbLine
 10
827.034362
 20
623.292786
 30
0.0
 11
826.546435
 21
623.292786
 31
0.0
  0
LINE
  5
E2
330
6B
100
AcDbEntity
  8
0
 62
     3
100
AcDbLine
 10
934.9464349999999
 20
757.2873969999997
 30
0.0
 11
1018.546435
 21
757.2873969999997
 31
0.0
  0
TEXT
  5
E3
330
6B
100
AcDbEntity
  8
0
 62
     3
100
AcDbText
 10
1007.821435
 20
753.1423969999997
 30
0.0
 40
3.2
  1
担
  7
高3.2
100
AcDbText
  0
TEXT
  5
E4
330
6B
100
AcDbEntity
  8
0
 62
     3
100
AcDbText
 10
1014.708935
 20
753.1423969999997
 30
0.0
 40
3.2
  1
当
  7
高3.2
100
AcDbText
  0
TEXT
  5
E5
330
6B
100
AcDbEntity
  8
0
 62
     3
100
AcDbText
 10
967.625658
 20
753.1252349999999
 30
0.0
 40
3.2
  1
変更・追記内容
  7
高3.2
100
AcDbText
  0
LINE
  5
E6
330
6B
100
AcDbEntity
  8
0
 62
     3
100
AcDbLine
 10
934.9464349999999
 20
761.7927859999999
 30
0.0
 11
934.9464349999999
 21
742.4373969999996
 31
0.0
  0
TEXT
  5
E7
330
6B
100
AcDbEntity
  8
0
 62
     3
100
AcDbText
 10
939.5388002838105
 20
748.4846505665551
 30
0.0
 40
2.0
  1
1
  7
高2
100
AcDbText
  0
TEXT
  5
E8
330
6B
100
AcDbEntity
  8
0
 62
     3
100
AcDbText
 10
939.078072527934
 20
743.2795797643449
 30
0.0
 40
2.0
  1
2
  7
高2
100
AcDbText
  0
TEXT
  5
E9
330
6B
100
AcDbEntity
  8
0
 62
     3
100
AcDbText
 10
947.905384
 20
753.0913187042235
 30
0.0
 40
3.2
  1
日
  7
高3.2
100
AcDbText
  0
TEXT
  5
EA
330
6B
100
AcDbEntity
  8
0
 62
     3
100
AcDbText
 10
956.7822579999999
 20
753.0913187042235
 30
0.0
 40
3.2
  1
付
  7
高3.2
100
AcDbText
  0
TEXT
  5
EB
330
6B
100
AcDbEntity
  8
0
 62
     3
100
AcDbText
 10
947.731225
 20
757.9373969999997
 30
0.0
 40
3.2
  1
図
  7
高3.2
100
AcDbText
  0
TEXT
  5
EC
330
6B
100
AcDbEntity
  8
0
 62
     3
100
AcDbText
 10
966.3871209999999
 20
757.9373969999997
 30
0.0
 40
3.2
  1
面
  7
高3.2
100
AcDbText
  0
TEXT
  5
ED
330
6B
100
AcDbEntity
  8
0
 62
     3
100
AcDbText
 10
985.043016
 20
757.9373969999997
 30
0.0
 40
3.2
  1
略
  7
高3.2
100
AcDbText
  0
TEXT
  5
EE
330
6B
100
AcDbEntity
  8
0
 62
     3
100
AcDbText
 10
1003.698911
 20
757.9373969999997
 30
0.0
 40
3.2
  1
歴
  7
高3.2
100
AcDbText
  0
TEXT
  5
EF
330
6B
100
AcDbEntity
  8
0
 62
     3
100
AcDbText
 10
935.548799
 20
753.0623969999997
 30
0.0
 40
3.2
  1
記
  7
高3.2
100
AcDbText
  0
TEXT
  5
F0
330
6B
100
AcDbEntity
  8
0
 62
     3
100
AcDbText
 10
941.8017069999999
 20
753.0623969999997
 30
0.0
 40
3.2
  1
号
  7
高3.2
100
AcDbText
  0
LINE
  5
F1
330
6B
100
AcDbEntity
  8
0
 62
     3
100
AcDbLine
 10
1018.546435
 20
742.4373969999996
 30
0.0
 11
934.9464349999999
 21
742.4373969999996
 31
0.0
  0
LINE
  5
F4
330
6B
100
AcDbEntity
  8
0
 62
     2
100
AcDbLine
 10
905.6307870000001
 20
763.58023
 30
0.0
 11
906.0665349999997
 21
763.3527619999996
 31
0.0
  0
LINE
  5
F5
330
6B
100
AcDbEntity
  8
0
 62
     2
100
AcDbLine
 10
905.6307870000001
 20
759.8495999999999
 30
0.0
 11
906.0665349999997
 21
760.0770679999997
 31
0.0
  0
LINE
  5
F6
330
6B
100
AcDbEntity
  8
0
 62
     2
100
AcDbLine
 10
906.0665349999997
 20
763.3527619999996
 30
0.0
 11
906.0665349999997
 21
760.0770679999997
 31
0.0
  0
LINE
  5
F7
330
6B
100
AcDbEntity
  8
0
 62
     2
100
AcDbLine
 10
907.170052
 20
759.8495999999999
 30
0.0
 11
906.7343049999999
 21
760.0770679999997
 31
0.0
  0
LINE
  5
F8
330
6B
100
AcDbEntity
  8
0
 62
     2
100
AcDbLine
 10
906.7343049999999
 20
762.0739269999996
 30
0.0
 11
906.7343049999999
 21
760.0770679999997
 31
0.0
  0
LINE
  5
F9
330
6B
100
AcDbEntity
  8
0
 62
     2
100
AcDbLine
 10
909.7119149999999
 20
763.58023
 30
0.0
 11
909.2761669999999
 21
763.3527619999996
 31
0.0
  0
LINE
  5
FA
330
6B
100
AcDbEntity
  8
0
 62
     2
100
AcDbLine
 10
908.17265
 20
763.58023
 30
0.0
 11
908.6083979999999
 21
763.3527619999996
 31
0.0
  0
LINE
  5
FB
330
6B
100
AcDbEntity
  8
0
 62
     2
100
AcDbLine
 10
908.6083979999999
 20
763.3527619999996
 30
0.0
 11
908.6083979999999
 21
761.910425
 31
0.0
  0
LINE
  5
FC
330
6B
100
AcDbEntity
  8
0
 62
     2
100
AcDbLine
 10
909.2761669999999
 20
763.3527619999996
 30
0.0
 11
909.2761669999999
 21
759.6380379999997
 31
0.0
  0
LINE
  5
FD
330
6B
100
AcDbEntity
  8
0
 62
     2
100
AcDbLine
 10
909.927212
 20
763.5802269999997
 30
0.0
 11
910.3629589999997
 21
763.352756
 31
0.0
  0
LINE
  5
FE
330
6B
100
AcDbEntity
  8
0
 62
     2
100
AcDbLine
 10
909.9271349999996
 20
759.84965
 30
0.0
 11
910.36289
 21
760.077103
 31
0.0
  0
LINE
  5
FF
330
6B
100
AcDbEntity
  8
0
 62
     2
100
AcDbLine
 10
910.3629589999997
 20
763.352756
 30
0.0
 11
910.3629589999997
 21
760.077103
 31
0.0
  0
LINE
  5
100
330
6B
100
AcDbEntity
  8
0
 62
     2
100
AcDbLine
 10
911.856749
 20
763.5802039999996
 30
0.0
 11
911.420998
 21
763.352742
 31
0.0
  0
LINE
  5
101
330
6B
100
AcDbEntity
  8
0
 62
     2
100
AcDbLine
 10
911.420998
 20
763.352742
 30
0.0
 11
911.420998
 21
760.0770879999997
 31
0.0
  0
LINE
  5
102
330
6B
100
AcDbEntity
  8
0
 62
     2
100
AcDbLine
 10
911.856749
 20
759.8496259999997
 30
0.0
 11
911.420998
 21
760.0770879999997
 31
0.0
  0
LINE
  5
103
330
6B
100
AcDbEntity
  8
0
 62
     2
100
AcDbLine
 10
915.5470019999999
 20
763.5801629999997
 30
0.0
 11
915.9827489999999
 21
763.3526929999996
 31
0.0
  0
LINE
  5
104
330
6B
100
AcDbEntity
  8
0
 62
     2
100
AcDbLine
 10
915.9827489999999
 20
763.3526929999996
 30
0.0
 11
915.982692
 21
760.077039
 31
0.0
  0
LINE
  5
105
330
6B
100
AcDbEntity
  8
0
 62
     2
100
AcDbLine
 10
915.546937
 20
759.8495849999997
 30
0.0
 11
915.982692
 21
760.077039
 31
0.0
  0
LINE
  5
106
330
6B
100
AcDbEntity
  8
0
 62
     2
100
AcDbLine
 10
917.499263
 20
763.5801629999997
 30
0.0
 11
917.0635160000001
 21
763.3526929999996
 31
0.0
  0
LINE
  5
107
330
6B
100
AcDbEntity
  8
0
 62
     2
100
AcDbLine
 10
917.4993279999997
 20
759.8495849999997
 30
0.0
 11
917.063573
 21
760.077039
 31
0.0
  0
LINE
  5
108
330
6B
100
AcDbEntity
  8
0
 62
     2
100
AcDbLine
 10
917.7029909999999
 20
763.5801629999997
 30
0.0
 11
918.1387380000003
 21
763.3526929999996
 31
0.0
  0
LINE
  5
109
330
6B
100
AcDbEntity
  8
0
 62
     2
100
AcDbLine
 10
917.7029260000001
 20
759.8495849999997
 30
0.0
 11
918.1386810000001
 21
760.077039
 31
0.0
  0
LINE
  5
10A
330
6B
100
AcDbEntity
  8
0
 62
     2
100
AcDbLine
 10
919.6552519999999
 20
763.5801629999997
 30
0.0
 11
919.219505
 21
763.3526929999996
 31
0.0
  0
LINE
  5
10B
330
6B
100
AcDbEntity
  8
0
 62
     2
100
AcDbLine
 10
919.219505
 20
763.3526929999996
 30
0.0
 11
919.2195619999999
 21
760.077039
 31
0.0
  0
LINE
  5
10C
330
6B
100
AcDbEntity
  8
0
 62
     2
100
AcDbLine
 10
919.6553169999999
 20
759.8495849999997
 30
0.0
 11
919.2195619999999
 21
760.077039
 31
0.0
  0
LINE
  5
10D
330
6B
100
AcDbEntity
  8
0
 62
     2
100
AcDbLine
 10
918.138713
 20
761.92556
 30
0.0
 11
917.063541
 21
761.92556
 31
0.0
  0
LINE
  5
10E
330
6B
100
AcDbEntity
  8
0
 62
     2
100
AcDbLine
 10
918.138706
 20
761.50427
 30
0.0
 11
917.0635479999999
 21
761.50427
 31
0.0
  0
LINE
  5
10F
330
6B
100
AcDbEntity
  8
0
 62
     2
100
AcDbLine
 10
918.1387380000003
 20
763.3526929999996
 30
0.0
 11
918.138713
 21
761.92556
 31
0.0
  0
LINE
  5
110
330
6B
100
AcDbEntity
  8
0
 62
     2
100
AcDbLine
 10
918.138706
 20
761.50427
 30
0.0
 11
918.1386810000001
 21
760.077039
 31
0.0
  0
LINE
  5
111
330
6B
100
AcDbEntity
  8
0
 62
     2
100
AcDbLine
 10
917.0635160000001
 20
763.3526929999996
 30
0.0
 11
917.063541
 21
761.92556
 31
0.0
  0
LINE
  5
112
330
6B
100
AcDbEntity
  8
0
 62
     2
100
AcDbLine
 10
917.0635479999999
 20
761.50427
 30
0.0
 11
917.063573
 21
760.077039
 31
0.0
  0
LINE
  5
113
330
6B
100
AcDbEntity
  8
0
 62
     2
100
AcDbLine
 10
919.8622109999996
 20
763.5801629999997
 30
0.0
 11
920.297958
 21
763.3526929999996
 31
0.0
  0
LINE
  5
114
330
6B
100
AcDbEntity
  8
0
 62
     2
100
AcDbLine
 10
920.297958
 20
763.3526929999996
 30
0.0
 11
920.2979009999999
 21
760.077039
 31
0.0
  0
LINE
  5
115
330
6B
100
AcDbEntity
  8
0
 62
     2
100
AcDbLine
 10
919.862146
 20
759.8495849999997
 30
0.0
 11
920.2979009999999
 21
760.077039
 31
0.0
  0
LINE
  5
116
330
6B
100
AcDbEntity
  8
0
 62
     2
100
AcDbLine
 10
921.7917210000001
 20
763.5801629999997
 30
0.0
 11
921.355974
 21
763.3526929999996
 31
0.0
  0
LINE
  5
117
330
6B
100
AcDbEntity
  8
0
 62
     2
100
AcDbLine
 10
921.355974
 20
763.3526929999996
 30
0.0
 11
921.356032
 21
760.077039
 31
0.0
  0
LINE
  5
118
330
6B
100
AcDbEntity
  8
0
 62
     2
100
AcDbLine
 10
921.7917869999999
 20
759.8495849999997
 30
0.0
 11
921.356032
 21
760.077039
 31
0.0
  0
LINE
  5
119
330
6B
100
AcDbEntity
  8
0
 62
     2
100
AcDbLine
 10
922.0060809999999
 20
763.5801629999997
 30
0.0
 11
922.441828
 21
763.3526929999996
 31
0.0
  0
LINE
  5
11A
330
6B
100
AcDbEntity
  8
0
 62
     2
100
AcDbLine
 10
922.441828
 20
763.3526929999996
 30
0.0
 11
922.441771
 21
760.077039
 31
0.0
  0
LINE
  5
11B
330
6B
100
AcDbEntity
  8
0
 62
     2
100
AcDbLine
 10
922.006016
 20
759.8495849999997
 30
0.0
 11
922.441771
 21
760.077039
 31
0.0
  0
ARC
  5
11C
330
6B
100
AcDbEntity
  8
0
 62
     2
100
AcDbCircle
 10
914.1550909999999
 20
761.7243049999999
 30
0.0
 40
2.086285999999998
100
AcDbArc
 50
97.701524
 51
270.0
  0
ARC
  5
11D
330
6B
100
AcDbEntity
  8
0
 62
     2
100
AcDbCircle
 10
927.0356920000001
 20
761.7033479999999
 30
0.0
 40
2.108943
100
AcDbArc
 50
0.31425
 51
69.00558199999998
  0
ARC
  5
11E
330
6B
100
AcDbEntity
  8
0
 62
     2
100
AcDbCircle
 10
927.4963669999999
 20
761.7033479999999
 30
0.0
 40
2.108943
100
AcDbArc
 50
110.994418
 51
148.116611
  0
ARC
  5
11F
330
6B
100
AcDbEntity
  8
0
 62
     2
100
AcDbCircle
 10
927.0356920000001
 20
761.726482
 30
0.0
 40
2.108943
100
AcDbArc
 50
290.994418
 51
359.68575
  0
ARC
  5
120
330
6B
100
AcDbEntity
  8
0
 62
     2
100
AcDbCircle
 10
927.4963669999999
 20
761.726482
 30
0.0
 40
2.108943
100
AcDbArc
 50
211.883389
 51
249.005582
  0
ARC
  5
121
330
6B
100
AcDbEntity
  8
0
 62
     2
100
AcDbCircle
 10
927.2660300000001
 20
762.5777199999999
 30
0.0
 40
1.214070999999999
100
AcDbArc
 50
64.365172
 51
115.634828
  0
ARC
  5
122
330
6B
100
AcDbEntity
  8
0
 62
     2
100
AcDbCircle
 10
927.2660300000001
 20
760.852109
 30
0.0
 40
1.214070999999999
100
AcDbArc
 50
244.365172
 51
295.634828
  0
ARC
  5
123
330
6B
100
AcDbEntity
  8
0
 62
     2
100
AcDbCircle
 10
927.2660300000001
 20
762.6007819999996
 30
0.0
 40
0.5958560000000001
100
AcDbArc
 50
19.486606
 51
160.513394
  0
ARC
  5
124
330
6B
100
AcDbEntity
  8
0
 62
     2
100
AcDbCircle
 10
927.2660300000001
 20
760.829048
 30
0.0
 40
0.5958560000000001
100
AcDbArc
 50
199.4866059999999
 51
340.513394
  0
ARC
  5
125
330
6B
100
AcDbEntity
  8
0
 62
     3
100
AcDbCircle
 10
922.523557
 20
739.4868549999999
 30
0.0
 40
26.04
100
AcDbArc
 50
69.50571500000001
 51
81.689988
  0
ARC
  5
126
330
6B
100
AcDbEntity
  8
0
 62
     3
100
AcDbCircle
 10
922.523557
 20
783.942975
 30
0.0
 40
26.04
100
AcDbArc
 50
278.310012
 51
290.494285
  0
ARC
  5
127
330
6B
100
AcDbEntity
  8
0
 62
     3
100
AcDbCircle
 10
930.8317610000001
 20
761.714915
 30
0.0
 40
2.31
100
AcDbArc
 50
290.494285
 51
69.50571500000001
  0
ARC
  5
128
330
6B
100
AcDbEntity
  8
0
 62
     3
100
AcDbCircle
 10
903.5317609999999
 20
761.714915
 30
0.0
 40
2.31
100
AcDbArc
 50
110.494285
 51
249.505715
  0
ARC
  5
129
330
6B
100
AcDbEntity
  8
0
 62
     3
100
AcDbCircle
 10
911.839965
 20
739.4868549999999
 30
0.0
 40
26.04
100
AcDbArc
 50
98.31001200000001
 51
110.494285
  0
ARC
  5
12A
330
6B
100
AcDbEntity
  8
0
 62
     3
100
AcDbCircle
 10
911.839965
 20
783.942975
 30
0.0
 40
26.04
100
AcDbArc
 50
249.505715
 51
261.689988
  0
ARC
  5
12B
330
6B
100
AcDbEntity
  8
0
 62
     3
100
AcDbCircle
 10
917.1817610000001
 20
702.9149150000002
 30
0.0
 40
63.0
100
AcDbArc
 50
81.689988
 51
98.31001200000001
  0
ARC
  5
12C
330
6B
100
AcDbEntity
  8
0
 62
     3
100
AcDbCircle
 10
917.1817610000001
 20
820.514915
 30
0.0
 40
63.0
100
AcDbArc
 50
261.689988
 51
278.310012
  0
ARC
  5
12D
330
6B
100
AcDbEntity
  8
0
 62
     3
100
AcDbCircle
 10
917.1817610000001
 20
702.9149150000002
 30
0.0
 40
62.37
100
AcDbArc
 50
81.689988
 51
98.31001200000001
  0
ARC
  5
12E
330
6B
100
AcDbEntity
  8
0
 62
     3
100
AcDbCircle
 10
917.1817610000001
 20
820.514915
 30
0.0
 40
62.37
100
AcDbArc
 50
261.689988
 51
278.310012
  0
ARC
  5
12F
330
6B
100
AcDbEntity
  8
0
 62
     3
100
AcDbCircle
 10
922.523557
 20
783.942975
 30
0.0
 40
25.41
100
AcDbArc
 50
278.310012
 51
290.494285
  0
ARC
  5
130
330
6B
100
AcDbEntity
  8
0
 62
     3
100
AcDbCircle
 10
922.523557
 20
739.4868549999999
 30
0.0
 40
25.41
100
AcDbArc
 50
69.50571500000001
 51
81.689988
  0
ARC
  5
131
330
6B
100
AcDbEntity
  8
0
 62
     3
100
AcDbCircle
 10
930.8317610000001
 20
761.714915
 30
0.0
 40
1.679999999999999
100
AcDbArc
 50
290.494285
 51
69.50571500000001
  0
ARC
  5
132
330
6B
100
AcDbEntity
  8
0
 62
     3
100
AcDbCircle
 10
903.5317609999999
 20
761.714915
 30
0.0
 40
1.679999999999999
100
AcDbArc
 50
110.494285
 51
249.505715
  0
ARC
  5
133
330
6B
100
AcDbEntity
  8
0
 62
     3
100
AcDbCircle
 10
911.839965
 20
739.4868549999999
 30
0.0
 40
25.41
100
AcDbArc
 50
98.31001200000001
 51
110.494285
  0
ARC
  5
134
330
6B
100
AcDbEntity
  8
0
 62
     3
100
AcDbCircle
 10
911.839965
 20
783.942975
 30
0.0
 40
25.41
100
AcDbArc
 50
249.505715
 51
261.689988
  0
LINE
  5
135
330
6B
100
AcDbEntity
  8
0
 62
     2
100
AcDbLine
 10
921.791722
 20
759.6380379999997
 30
0.0
 11
919.8622099999999
 21
759.6380379999997
 31
0.0
  0
LINE
  5
136
330
6B
100
AcDbEntity
  8
0
 62
     2
100
AcDbLine
 10
921.791722
 20
759.8495999999999
 30
0.0
 11
921.791722
 21
759.6380379999997
 31
0.0
  0
LINE
  5
137
330
6B
100
AcDbEntity
  8
0
 62
     2
100
AcDbLine
 10
919.6552529999999
 20
763.791693
 30
0.0
 11
917.70299
 21
763.791693
 31
0.0
  0
LINE
  5
138
330
6B
100
AcDbEntity
  8
0
 62
     2
100
AcDbLine
 10
919.6552529999999
 20
763.791693
 30
0.0
 11
919.6552529999999
 21
763.58023
 31
0.0
  0
LINE
  5
139
330
6B
100
AcDbEntity
  8
0
 62
     2
100
AcDbLine
 10
919.6552529999999
 20
759.8495999999999
 30
0.0
 11
919.6552529999999
 21
759.63794
 31
0.0
  0
LINE
  5
13A
330
6B
100
AcDbEntity
  8
0
 62
     2
100
AcDbLine
 10
919.6552529999999
 20
759.63794
 30
0.0
 11
917.70299
 21
759.63794
 31
0.0
  0
LINE
  5
13B
330
6B
100
AcDbEntity
  8
0
 62
     2
100
AcDbLine
 10
921.791722
 20
763.7917909999996
 30
0.0
 11
921.791722
 21
763.58023
 31
0.0
  0
LINE
  5
13C
330
6B
100
AcDbEntity
  8
0
 62
     2
100
AcDbLine
 10
921.791722
 20
763.7917909999996
 30
0.0
 11
919.8622099999999
 21
763.7917909999996
 31
0.0
  0
LINE
  5
13D
330
6B
100
AcDbEntity
  8
0
 62
     2
100
AcDbLine
 10
919.8622099999999
 20
763.7917909999996
 30
0.0
 11
919.8622099999999
 21
763.58023
 31
0.0
  0
LINE
  5
13E
330
6B
100
AcDbEntity
  8
0
 62
     2
100
AcDbLine
 10
922.00608
 20
759.8495999999999
 30
0.0
 11
922.00608
 21
759.6380379999997
 31
0.0
  0
LINE
  5
13F
330
6B
100
AcDbEntity
  8
0
 62
     2
100
AcDbLine
 10
923.9903809999999
 20
759.6380379999997
 30
0.0
 11
922.00608
 21
759.6380379999997
 31
0.0
  0
LINE
  5
140
330
6B
100
AcDbEntity
  8
0
 62
     2
100
AcDbLine
 10
923.499844
 20
763.1240219999997
 30
0.0
 11
923.499844
 21
760.3058079999997
 31
0.0
  0
LINE
  5
141
330
6B
100
AcDbEntity
  8
0
 62
     2
100
AcDbLine
 10
923.499844
 20
760.3058079999997
 30
0.0
 11
923.689893
 21
760.3058079999997
 31
0.0
  0
ARC
  5
142
330
6B
100
AcDbEntity
  8
0
 62
     2
100
AcDbCircle
 10
922.718107
 20
761.714915
 30
0.0
 40
1.711709999999999
100
AcDbArc
 50
304.591955
 51
55.408045
  0
LINE
  5
143
330
6B
100
AcDbEntity
  8
0
 62
     2
100
AcDbLine
 10
923.9903809999999
 20
763.7917909999996
 30
0.0
 11
922.00608
 21
763.7917909999996
 31
0.0
  0
LINE
  5
144
330
6B
100
AcDbEntity
  8
0
 62
     2
100
AcDbLine
 10
922.00608
 20
763.7917909999996
 30
0.0
 11
922.00608
 21
763.58023
 31
0.0
  0
LINE
  5
145
330
6B
100
AcDbEntity
  8
0
 62
     2
100
AcDbLine
 10
919.8622099999999
 20
759.8495999999999
 30
0.0
 11
919.8622099999999
 21
759.6380379999997
 31
0.0
  0
LINE
  5
146
330
6B
100
AcDbEntity
  8
0
 62
     2
100
AcDbLine
 10
923.499844
 20
763.1240219999997
 30
0.0
 11
923.689893
 21
763.1240219999997
 31
0.0
  0
LINE
  5
147
330
6B
100
AcDbEntity
  8
0
 62
     2
100
AcDbLine
 10
911.856685
 20
759.8495999999999
 30
0.0
 11
911.856681
 21
759.6380189999996
 31
0.0
  0
LINE
  5
148
330
6B
100
AcDbEntity
  8
0
 62
     2
100
AcDbLine
 10
909.927169
 20
759.6380579999999
 30
0.0
 11
911.856681
 21
759.638025
 31
0.0
  0
LINE
  5
149
330
6B
100
AcDbEntity
  8
0
 62
     2
100
AcDbLine
 10
905.6307870000001
 20
759.6380379999997
 30
0.0
 11
907.170052
 21
759.6380379999997
 31
0.0
  0
ARC
  5
14A
330
6B
100
AcDbEntity
  8
0
 62
     2
100
AcDbCircle
 10
900.648844
 20
761.7638209999999
 30
0.0
 40
14.713566
100
AcDbArc
 50
353.866006
 51
357.694034
  0
LINE
  5
14B
330
6B
100
AcDbEntity
  8
0
 62
     2
100
AcDbLine
 10
914.3654240000001
 20
761.175454
 30
0.0
 11
915.3504949999996
 21
761.1718089999997
 31
0.0
  0
LINE
  5
18E
330
6B
100
AcDbEntity
  8
0
 62
     2
100
AcDbLine
 10
914.3694029999997
 20
762.250669
 30
0.0
 11
915.3544739999999
 21
762.247024
 31
0.0
  0
ARC
  5
18F
330
6B
100
AcDbEntity
  8
0
 62
     2
100
AcDbCircle
 10
900.648844
 20
761.7638209999999
 30
0.0
 40
14.713566
100
AcDbArc
 50
1.881965999999999
 51
5.709994
  0
LINE
  5
190
330
6B
100
AcDbEntity
  8
0
 62
     2
100
AcDbLine
 10
911.8567529999999
 20
763.791771
 30
0.0
 11
911.8567500000001
 21
763.58023
 31
0.0
  0
LINE
  5
191
330
6B
100
AcDbEntity
  8
0
 62
     2
100
AcDbLine
 10
909.927242
 20
763.7918110000001
 30
0.0
 11
911.8567529999999
 21
763.7917769999996
 31
0.0
  0
LINE
  5
192
330
6B
100
AcDbEntity
  8
0
 62
     2
100
AcDbLine
 10
909.9271729999999
 20
759.8495999999999
 30
0.0
 11
909.927169
 21
759.6380579999999
 31
0.0
  0
LINE
  5
193
330
6B
100
AcDbEntity
  8
0
 62
     2
100
AcDbLine
 10
909.927242
 20
763.7918110000001
 30
0.0
 11
909.927238
 21
763.58023
 31
0.0
  0
LINE
  5
194
330
6B
100
AcDbEntity
  8
0
 62
     2
100
AcDbLine
 10
907.170052
 20
759.8495999999999
 30
0.0
 11
907.170052
 21
759.6380379999997
 31
0.0
  0
LINE
  5
195
330
6B
100
AcDbEntity
  8
0
 62
     2
100
AcDbLine
 10
906.7343049999999
 20
762.0739269999996
 30
0.0
 11
908.2567350000001
 21
759.6380379999997
 31
0.0
  0
LINE
  5
196
330
6B
100
AcDbEntity
  8
0
 62
     2
100
AcDbLine
 10
908.2567350000001
 20
759.6380379999997
 30
0.0
 11
909.2761669999999
 21
759.6380379999997
 31
0.0
  0
LINE
  5
197
330
6B
100
AcDbEntity
  8
0
 62
     2
100
AcDbLine
 10
909.7119149999999
 20
763.7917909999996
 30
0.0
 11
909.7119149999999
 21
763.58023
 31
0.0
  0
LINE
  5
198
330
6B
100
AcDbEntity
  8
0
 62
     2
100
AcDbLine
 10
908.17265
 20
763.7917909999996
 30
0.0
 11
909.7119149999999
 21
763.7917909999996
 31
0.0
  0
LINE
  5
199
330
6B
100
AcDbEntity
  8
0
 62
     2
100
AcDbLine
 10
908.17265
 20
763.7917909999996
 30
0.0
 11
908.17265
 21
763.58023
 31
0.0
  0
LINE
  5
19A
330
6B
100
AcDbEntity
  8
0
 62
     2
100
AcDbLine
 10
908.6083979999999
 20
761.910425
 30
0.0
 11
907.3737509999999
 21
763.7917909999996
 31
0.0
  0
LINE
  5
19B
330
6B
100
AcDbEntity
  8
0
 62
     2
100
AcDbLine
 10
905.6307870000001
 20
763.7917909999996
 30
0.0
 11
907.3737509999999
 21
763.7917909999996
 31
0.0
  0
LINE
  5
19C
330
6B
100
AcDbEntity
  8
0
 62
     2
100
AcDbLine
 10
915.5470019999999
 20
763.791693
 30
0.0
 11
917.4992640000001
 21
763.791693
 31
0.0
  0
LINE
  5
19D
330
6B
100
AcDbEntity
  8
0
 62
     2
100
AcDbLine
 10
915.5470019999999
 20
763.58023
 30
0.0
 11
915.5470019999999
 21
763.791693
 31
0.0
  0
LINE
  5
19E
330
6B
100
AcDbEntity
  8
0
 62
     2
100
AcDbLine
 10
915.5470019999999
 20
759.63794
 30
0.0
 11
915.5470019999999
 21
759.8495999999999
 31
0.0
  0
LINE
  5
19F
330
6B
100
AcDbEntity
  8
0
 62
     2
100
AcDbLine
 10
915.5470019999999
 20
759.63794
 30
0.0
 11
917.4992640000001
 21
759.63794
 31
0.0
  0
LINE
  5
1A0
330
6B
100
AcDbEntity
  8
0
 62
     2
100
AcDbLine
 10
917.70299
 20
759.8495999999999
 30
0.0
 11
917.70299
 21
759.63794
 31
0.0
  0
LINE
  5
1A1
330
6B
100
AcDbEntity
  8
0
 62
     2
100
AcDbLine
 10
917.4992640000001
 20
759.8495999999999
 30
0.0
 11
917.4992640000001
 21
759.63794
 31
0.0
  0
LINE
  5
1A2
330
6B
100
AcDbEntity
  8
0
 62
     2
100
AcDbLine
 10
917.4992640000001
 20
763.58023
 30
0.0
 11
917.4992640000001
 21
763.791693
 31
0.0
  0
LINE
  5
1A3
330
6B
100
AcDbEntity
  8
0
 62
     2
100
AcDbLine
 10
917.70299
 20
763.58023
 30
0.0
 11
917.70299
 21
763.791693
 31
0.0
  0
LINE
  5
1A4
330
6B
100
AcDbEntity
  8
0
 62
     2
100
AcDbLine
 10
905.6307870000001
 20
759.8495999999999
 30
0.0
 11
905.6307870000001
 21
759.6380379999997
 31
0.0
  0
LINE
  5
1A5
330
6B
100
AcDbEntity
  8
0
 62
     2
100
AcDbLine
 10
905.6307870000001
 20
763.7917909999996
 30
0.0
 11
905.6307870000001
 21
763.58023
 31
0.0
  0
ARC
  5
1A6
330
6B
100
AcDbEntity
  8
0
 62
     2
100
AcDbCircle
 10
924.2003809999999
 20
762.1506629999997
 30
0.0
 40
1.641127999999999
100
AcDbArc
 50
17.308749
 51
23.765071
  0
ARC
  5
1A7
330
6B
100
AcDbEntity
  8
0
 62
     2
100
AcDbCircle
 10
922.802107
 20
761.714915
 30
0.0
 40
3.105725999999998
100
AcDbArc
 50
342.691251
 51
17.308566
  0
ARC
  5
1A8
330
6B
100
AcDbEntity
  8
0
 62
     2
100
AcDbCircle
 10
924.2003809999999
 20
761.279167
 30
0.0
 40
1.641127999999999
100
AcDbArc
 50
336.234929
 51
342.691251
  0
ARC
  5
1A9
330
6B
100
AcDbEntity
  8
0
 62
     2
100
AcDbCircle
 10
923.9903809999999
 20
762.1506629999997
 30
0.0
 40
1.641127999999999
100
AcDbArc
 50
17.308749
 51
90.0
  0
ARC
  5
1AA
330
6B
100
AcDbEntity
  8
0
 62
     2
100
AcDbCircle
 10
922.592107
 20
761.714915
 30
0.0
 40
3.105725999999998
100
AcDbArc
 50
342.691251
 51
17.308566
  0
ARC
  5
1AB
330
6B
100
AcDbEntity
  8
0
 62
     2
100
AcDbCircle
 10
923.9903809999999
 20
761.279167
 30
0.0
 40
1.641127999999999
100
AcDbArc
 50
270.0
 51
342.691251
  0
ARC
  5
1AC
330
6B
100
AcDbEntity
  8
0
 62
     2
100
AcDbCircle
 10
913.8664399999999
 20
761.714915
 30
0.0
 40
2.076875999999999
100
AcDbArc
 50
46.75287999999999
 51
89.749998
  0
ARC
  5
1AD
330
6B
100
AcDbEntity
  8
0
 62
     2
100
AcDbCircle
 10
913.8664399999999
 20
761.714915
 30
0.0
 40
2.076875999999999
100
AcDbArc
 50
273.976333
 51
312.82312
  0
ARC
  5
1AE
330
6B
100
AcDbEntity
  8
0
 62
     2
100
AcDbCircle
 10
925.3082480000001
 20
761.682853
 30
0.0
 40
2.755888999999998
100
AcDbArc
 50
0.6665840000000001
 51
23.903928
  0
ARC
  5
1AF
330
6B
100
AcDbEntity
  8
0
 62
     2
100
AcDbCircle
 10
929.2238109999999
 20
761.682853
 30
0.0
 40
2.755888999999998
100
AcDbArc
 50
156.096072
 51
179.333416
  0
ARC
  5
1B0
330
6B
100
AcDbEntity
  8
0
 62
     2
100
AcDbCircle
 10
925.3082480000001
 20
761.746976
 30
0.0
 40
2.755888999999998
100
AcDbArc
 50
336.096072
 51
359.333416
  0
ARC
  5
1B1
330
6B
100
AcDbEntity
  8
0
 62
     2
100
AcDbCircle
 10
929.2238109999999
 20
761.746976
 30
0.0
 40
2.755888999999998
100
AcDbArc
 50
180.666584
 51
203.903928
  0
LINE
  5
1B4
330
6B
100
AcDbEntity
  8
0
 62
     3
100
AcDbLine
 10
992.847071
 20
501.4585089999997
 30
0.0
 11
992.847071
 21
524.4585089999998
 31
0.0
  0
LINE
  5
1B6
330
6B
100
AcDbEntity
  8
0
 62
     3
100
AcDbLine
 10
939.7934619999999
 20
494.4585089999998
 30
0.0
 11
939.7934619999999
 21
508.4585089999998
 31
0.0
  0
TEXT
  5
1B8
330
6B
100
AcDbEntity
  8
0
 62
     3
100
AcDbText
 10
968.8573899999999
 20
520.663625
 30
0.0
 40
2.0
  1
A
 41
0.7
100
AcDbText
  0
TEXT
  5
1B9
330
6B
100
AcDbEntity
  8
0
 62
     3
100
AcDbText
 10
971.3926760000001
 20
520.663625
 30
0.0
 40
2.0
  1
P
 41
0.7
100
AcDbText
  0
TEXT
  5
1BA
330
6B
100
AcDbEntity
  8
0
 62
     3
100
AcDbText
 10
973.9279619999999
 20
520.663625
 30
0.0
 40
2.0
  1
P
 41
0.7
100
AcDbText
  0
TEXT
  5
1BB
330
6B
100
AcDbEntity
  8
0
 62
     3
100
AcDbText
 10
976.4632480000001
 20
520.663625
 30
0.0
 40
2.0
  1
D
 41
0.7
100
AcDbText
  0
TEXT
  5
1BC
330
6B
100
AcDbEntity
  8
0
 62
     3
100
AcDbText
 10
981.8319310000001
 20
520.663625
 30
0.0
 40
2.0
  1
C
 41
0.7
100
AcDbText
  0
TEXT
  5
1BD
330
6B
100
AcDbEntity
  8
0
 62
     3
100
AcDbText
 10
984.367218
 20
520.663625
 30
0.0
 40
2.0
  1
H
 41
0.7
100
AcDbText
  0
TEXT
  5
1BE
330
6B
100
AcDbEntity
  8
0
 62
     3
100
AcDbText
 10
986.9025039999996
 20
520.663625
 30
0.0
 40
2.0
  1
C
 41
0.7
100
AcDbText
  0
TEXT
  5
1BF
330
6B
100
AcDbEntity
  8
0
 62
     3
100
AcDbText
 10
989.4377900000003
 20
520.663625
 30
0.0
 40
2.0
  1
K
 41
0.7
100
AcDbText
  0
TEXT
  5
1C0
330
6B
100
AcDbEntity
  8
0
 62
     3
100
AcDbText
 10
995.111757
 20
520.663625
 30
0.0
 40
2.0
  1
DESN
 41
1.216762999999998
100
AcDbText
  0
TEXT
  5
1C1
330
6B
100
AcDbEntity
  8
0
 62
     3
100
AcDbText
 10
910.1053980000001
 20
491.3171269999998
 30
0.0
 40
2.0
  1
NICHIDO IND.CO.LTD
 41
1.274876
100
AcDbText
  0
LINE
  5
1C2
330
6B
100
AcDbEntity
  8
0
 62
     3
100
AcDbLine
 10
920.488427
 20
524.4585089999998
 30
0.0
 11
920.488427
 21
501.4585089999997
 31
0.0
  0
LINE
  5
1C3
330
6B
100
AcDbEntity
  8
0
 62
     3
100
AcDbLine
 10
966.8470710000001
 20
524.4585089999997
 30
0.0
 11
966.8470710000001
 21
484.7927859999998
 31
0.0
  0
LINE
  5
1C8
330
6B
100
AcDbEntity
  8
0
 62
     3
100
AcDbLine
 10
979.847071
 20
524.4585089999998
 30
0.0
 11
979.847071
 21
494.4585089999998
 31
0.0
  0
TEXT
  5
1C9
330
6B
100
AcDbEntity
  8
0
 62
     3
100
AcDbText
 10
967.9595159999999
 20
495.3231959999998
 30
0.0
 40
3.2
  1
作成日
 41
1.017225999999997
100
AcDbText
  0
LINE
  5
1CA
330
6B
100
AcDbEntity
  8
0
 62
     3
100
AcDbLine
 10
1018.546435
 20
524.4585089999998
 30
0.0
 11
907.2429919999999
 21
524.4585089999998
 31
0.0
  0
LINE
  5
1CB
330
6B
100
AcDbEntity
  8
0
 62
     3
100
AcDbLine
 10
1005.847071
 20
501.4585089999997
 30
0.0
 11
1005.847071
 21
524.4585089999998
 31
0.0
  0
TEXT
  5
1CC
330
6B
100
AcDbEntity
  8
0
 62
     3
100
AcDbText
 10
1009.170875
 20
520.7494429999997
 30
0.0
 40
1.8
  1
D
 41
0.666667
100
AcDbText
  0
TEXT
  5
1CD
330
6B
100
AcDbEntity
  8
0
 62
     3
100
AcDbText
 10
1011.987503
 20
520.7494429999997
 30
0.0
 40
1.8
  1
E
 41
0.666667
100
AcDbText
  0
TEXT
  5
1CE
330
6B
100
AcDbEntity
  8
0
 62
     3
100
AcDbText
 10
1014.804131
 20
520.7494429999997
 30
0.0
 40
1.8
  1
F
 41
0.666667
100
AcDbText
  0
TEXT
  5
1CF
330
6B
100
AcDbEntity
  8
0
 62
     3
100
AcDbText
 10
1009.170875
 20
516.75689
 30
0.0
 40
3.2
  1
製図
 41
1.076369
100
AcDbText
  0
LINE
  5
1D0
330
6B
100
AcDbEntity
  8
0
 62
     3
100
AcDbLine
 10
907.2429919999999
 20
524.4585089999998
 30
0.0
 11
907.2429919999999
 21
484.7927859999998
 31
0.0
  0
TEXT
  5
1D1
330
6B
100
AcDbEntity
  8
0
 62
     3
100
AcDbText
 10
908.619645
 20
485.1252519999999
 30
0.0
 40
5.0
  1
日動工業株式会社
 41
0.833333
100
AcDbText
  0
LINE
  5
1D2
330
6B
100
AcDbEntity
  8
0
 62
     3
100
AcDbLine
 10
950.1253959999999
 20
508.4585089999998
 30
0.0
 11
950.1253959999999
 21
484.7927859999998
 31
0.0
  0
LINE
  5
1D3
330
6B
100
AcDbEntity
  8
0
 62
     3
100
AcDbLine
 10
950.1253959999999
 20
489.6256479999998
 30
0.0
 11
966.8470710000001
 21
489.6256479999998
 31
0.0
  0
TEXT
  5
1D4
330
6B
100
AcDbEntity
  8
0
 62
     3
100
AcDbText
 10
950.711998
 20
490.4420779999998
 30
0.0
 40
3.2
  1
出図コード
 41
0.8356860000000001
100
AcDbText
  0
LINE
  5
1D6
330
6B
100
AcDbEntity
  8
0
 62
     3
100
AcDbLine
 10
907.2429919999999
 20
494.4585089999995
 30
0.0
 11
1018.546435
 21
494.4585089999998
 31
0.0
  0
LINE
  5
1D8
330
6B
100
AcDbEntity
  8
0
 62
     3
100
AcDbLine
 10
907.2429919999999
 20
515.4585089999998
 30
0.0
 11
1018.546435
 21
515.4585089999998
 31
0.0
  0
LINE
  5
1DE
330
6B
100
AcDbEntity
  8
0
 62
     3
100
AcDbLine
 10
907.2429919999999
 20
508.4585089999998
 30
0.0
 11
966.8470710000001
 21
508.4585089999998
 31
0.0
  0
LINE
  5
1E4
330
6B
100
AcDbEntity
  8
0
 62
     3
100
AcDbLine
 10
907.2429919999999
 20
501.4585089999997
 30
0.0
 11
1018.546435
 21
501.4585089999997
 31
0.0
  0
TEXT
  5
1E5
330
6B
100
AcDbEntity
  8
0
 62
     3
100
AcDbText
 10
950.57945
 20
485.3949809999998
 30
0.0
 40
3.2
  1
ZK-A4Y
 41
0.8112849999999999
100
AcDbText
  0
LINE
  5
1E6
330
6B
100
AcDbEntity
  8
0
 62
     3
100
AcDbLine
 10
838.5464349999999
 20
761.7927859999999
 30
0.0
 11
838.5464349999999
 21
484.792786
 31
0.0
  0
LINE
  5
1E7
330
6B
100
AcDbEntity
  8
0
 62
     3
100
AcDbLine
 10
1018.546435
 20
484.792786
 30
0.0
 11
1018.546435
 21
761.7927859999999
 31
0.0
  0
LINE
  5
1E8
330
6B
100
AcDbEntity
  8
0
 62
     3
100
AcDbLine
 10
1018.546435
 20
484.792786
 30
0.0
 11
838.5464349999999
 21
484.792786
 31
0.0
  0
TEXT
  5
1ED
330
6B
100
AcDbEntity
  8
0
 62
     3
100
AcDbText
 10
909.060389
 20
520.6280349999998
 30
0.0
 40
2.0
  1
CONPONENTS
 41
0.5331600000000001
100
AcDbText
  0
TEXT
  5
1EE
330
6B
100
AcDbEntity
  8
0
 62
     3
100
AcDbText
 10
908.7106629999999
 20
501.6958579999998
 30
0.0
 40
3.0
  1
材
 41
0.833333
100
AcDbText
  0
TEXT
  5
1EF
330
6B
100
AcDbEntity
  8
0
 62
     3
100
AcDbText
 10
916.2463049999999
 20
501.6958579999998
 30
0.0
 40
3.0
  1
質
 41
0.833333
100
AcDbText
  0
TEXT
  5
1F0
330
6B
100
AcDbEntity
  8
0
 62
     3
100
AcDbText
 10
908.798733
 20
512.3203819999998
 30
0.0
 40
2.0
  1
MODEL
 41
1.031072999999999
100
AcDbText
  0
TEXT
  5
1F1
330
6B
100
AcDbEntity
  8
0
 62
     3
100
AcDbText
 10
908.7106629999999
 20
505.3781659999998
 30
0.0
 40
2.0
  1
MATERIAL
 41
0.659278
100
AcDbText
  0
TEXT
  5
1F2
330
6B
100
AcDbEntity
  8
0
 62
     3
100
AcDbText
 10
940.0179429999999
 20
501.6958579999998
 30
0.0
 40
3.0
  1
備
 41
0.833333
100
AcDbText
  0
TEXT
  5
1F3
330
6B
100
AcDbEntity
  8
0
 62
     3
100
AcDbText
 10
946.7509449999999
 20
501.6958579999998
 30
0.0
 40
3.0
  1
考
 41
0.833333
100
AcDbText
  0
TEXT
  5
1F4
330
6B
100
AcDbEntity
  8
0
 62
     3
100
AcDbText
 10
940.4063347012128
 20
505.3781659999998
 30
0.0
 40
2.0
  1
REMARKS
 41
0.675794
100
AcDbText
  0
TEXT
  5
1F5
330
6B
100
AcDbEntity
  8
0
 62
     3
100
AcDbText
 10
910.300392
 20
498.458045
 30
0.0
 40
2.0
  1
3AD
 41
1.42614
100
AcDbText
  0
TEXT
  5
1F6
330
6B
100
AcDbEntity
  8
0
 62
     3
100
AcDbText
 10
919.611371
 20
498.6237789999998
 30
0.0
 40
2.0
  1
ANGLE
 41
1.669883999999997
100
AcDbText
  0
TEXT
  5
1F7
330
6B
100
AcDbEntity
  8
0
 62
     3
100
AcDbText
 10
940.5452589999999
 20
498.2469379999998
 30
0.0
 40
2.0
  1
SCALE
 41
0.7719630000000001
100
AcDbText
  0
TEXT
  5
1F8
330
6B
100
AcDbEntity
  8
0
 62
     3
100
AcDbText
 10
909.9865219999999
 20
494.4585089999998
 30
0.0
 40
3.0
  1
第
 41
0.833333
100
AcDbText
  0
TEXT
  5
1F9
330
6B
100
AcDbEntity
  8
0
 62
     3
100
AcDbText
 10
917.773372
 20
494.4585089999998
 30
0.0
 40
3.0
  1
三
 41
0.833333
100
AcDbText
  0
TEXT
  5
1FA
330
6B
100
AcDbEntity
  8
0
 62
     3
100
AcDbText
 10
925.560222
 20
494.4585089999998
 30
0.0
 40
3.0
  1
角
 41
0.833333
100
AcDbText
  0
TEXT
  5
1FB
330
6B
100
AcDbEntity
  8
0
 62
     3
100
AcDbText
 10
933.3470710000002
 20
494.4585089999998
 30
0.0
 40
3.0
  1
法
 41
0.833333
100
AcDbText
  0
TEXT
  5
1FC
330
6B
100
AcDbEntity
  8
0
 62
     3
100
AcDbText
 10
940.408464
 20
494.7469379999998
 30
0.0
 40
3.0
  1
尺
 41
0.833333
100
AcDbText
  0
TEXT
  5
1FD
330
6B
100
AcDbEntity
  8
0
 62
     3
100
AcDbText
 10
947.1414649999999
 20
494.7469379999998
 30
0.0
 40
3.0
  1
度
 41
0.833333
100
AcDbText
  0
TEXT
  5
1FE
330
6B
100
AcDbEntity
  8
0
 62
     3
100
AcDbText
 10
969.7247359999996
 20
516.9162379999996
 30
0.0
 40
3.0
  1
承認
 41
1.089472999999999
100
AcDbText
  0
TEXT
  5
1FF
330
6B
100
AcDbEntity
  8
0
 62
     3
100
AcDbText
 10
982.9676159999999
 20
516.858509
 30
0.0
 40
3.0
  1
検図
 41
0.931761
100
AcDbText
  0
TEXT
  5
200
330
6B
100
AcDbEntity
  8
0
 62
     3
100
AcDbText
 10
995.968013
 20
516.858509
 30
0.0
 40
3.0
  1
設
 41
0.833333
100
AcDbText
  0
TEXT
  5
201
330
6B
100
AcDbEntity
  8
0
 62
     3
100
AcDbText
 10
1000.457881
 20
516.858509
 30
0.0
 40
3.0
  1
計
 41
0.833333
100
AcDbText
  0
TEXT
  5
202
330
6B
100
AcDbEntity
  8
0
 62
     3
100
AcDbText
 10
908.9918609999999
 20
516.1472649999998
 30
0.0
 40
3.0
  1
品
 41
0.833333
100
AcDbText
  0
TEXT
  5
203
330
6B
100
AcDbEntity
  8
0
 62
     3
100
AcDbText
 10
916.527503
 20
516.1472649999998
 30
0.0
 40
3.0
  1
名
 41
0.833333
100
AcDbText
  0
TEXT
  5
204
330
6B
100
AcDbEntity
  8
0
 62
     3
100
AcDbText
 10
908.798733
 20
508.6881219999998
 30
0.0
 40
3.0
  1
型
 41
0.833333
100
AcDbText
  0
TEXT
  5
205
330
6B
100
AcDbEntity
  8
0
 62
     3
100
AcDbText
 10
916.346824
 20
508.6881219999998
 30
0.0
 40
3.0
  1
式
 41
0.833333
100
AcDbText
  0
LINE
  5
206
330
6B
100
AcDbEntity
  8
0
 62
     3
100
AcDbLine
 10
933.874098
 20
761.7927859999999
 30
0.0
 11
1018.546435
 21
761.7927859999999
 31
0.0
  0
LINE
  5
207
330
6B
100
AcDbEntity
  8
0
 62
     3
100
AcDbLine
 10
900.4613509999996
 20
761.7927859999999
 30
0.0
 11
838.5464349999999
 21
761.7927859999999
 31
0.0
  0
LINE
  5
209
330
6B
100
AcDbEntity
  8
0
 62
     7
100
AcDbLine
 10
945.051868
 20
757.2873969999997
 30
0.0
 11
945.051868
 21
742.4373969999996
 31
0.0
  0
LINE
  5
20A
330
6B
100
AcDbEntity
  8
0
 62
     7
100
AcDbLine
 10
1018.546435
 20
747.3873969999997
 30
0.0
 11
934.9464349999999
 21
747.3873969999997
 31
0.0
  0
LINE
  5
20B
330
6B
100
AcDbEntity
  8
0
 62
     7
100
AcDbLine
 10
1006.94891
 20
757.2873969999997
 30
0.0
 11
1006.94891
 21
742.4373969999996
 31
0.0
  0
LINE
  5
20C
330
6B
100
AcDbEntity
  8
0
 62
     7
100
AcDbLine
 10
962.6571949999997
 20
757.2873969999997
 30
0.0
 11
962.6571949999997
 21
742.4373969999996
 31
0.0
  0
LINE
  5
20E
330
6B
100
AcDbEntity
  8
0
 62
     7
100
AcDbLine
 10
934.9464349999999
 20
752.3373969999997
 30
0.0
 11
1018.546435
 21
752.3373969999997
 31
0.0
  0
TEXT
  5
20F
330
6B
100
AcDbEntity
  8
0
 62
     3
100
AcDbText
 10
952.112052
 20
495.3465059999998
 30
0.0
 40
3.2
  1
1/2
  7
高3.2
100
AcDbText
  0
TEXT
  5
210
330
6B
100
AcDbEntity
  8
0
 62
     3
100
AcDbText
 10
952.9937560000004
 20
502.0115579999998
 30
0.0
 40
3.2
  1
交換球
  7
高3.2
100
AcDbText
  0
LINE
  5
211
330
6B
100
AcDbEntity
  8
0
 62
     3
100
AcDbLine
 10
949.3773779999999
 20
692.5993959999997
 30
0.0
 11
949.3773779999999
 21
643.5993959999997
 31
0.0
  0
LINE
  5
212
330
6B
100
AcDbEntity
  8
0
 62
     3
100
AcDbLine
 10
949.3773779999999
 20
692.5993959999997
 30
0.0
 11
1011.87169
 21
692.5993959999997
 31
0.0
  0
LINE
  5
213
330
6B
100
AcDbEntity
  8
0
 62
     3
100
AcDbLine
 10
949.3773779999999
 20
643.5993959999997
 30
0.0
 11
1011.87169
 21
643.5993959999997
 31
0.0
  0
TEXT
  5
214
330
6B
100
AcDbEntity
  8
0
 62
     3
100
AcDbText
 10
957.4014983806304
 20
695.053378
 30
0.0
 40
4.5
  1
主　　　仕　　　様
  7
高4.5
100
AcDbText
  0
TEXT
  5
215
330
6B
100
AcDbEntity
  8
0
 62
     3
100
AcDbText
 10
951.3773780000001
 20
686.5993959999997
 30
0.0
 40
4.5
  1
型　　式
  7
高4.5
100
AcDbText
  0
TEXT
  5
216
330
6B
100
AcDbEntity
  8
0
 62
     3
100
AcDbText
 10
951.3773780000001
 20
679.5993959999997
 30
0.0
 40
4.5
  1
定格電圧
  7
高4.5
100
AcDbText
  0
TEXT
  5
217
330
6B
100
AcDbEntity
  8
0
 62
     3
100
AcDbText
 10
951.3773780000001
 20
672.5993959999997
 30
0.0
 40
4.5
  1
消費電力
  7
高4.5
100
AcDbText
  0
TEXT
  5
218
330
6B
100
AcDbEntity
  8
0
 62
     3
100
AcDbText
 10
951.3773780000001
 20
665.5993959999997
 30
0.0
 40
4.5
  1
定格光束
  7
高4.5
100
AcDbText
  0
TEXT
  5
219
330
6B
100
AcDbEntity
  8
0
 62
     3
100
AcDbText
 10
951.3773780000001
 20
658.5993959999997
 30
0.0
 40
4.5
  1
寿　　命
  7
高4.5
100
AcDbText
  0
TEXT
  5
21A
330
6B
100
AcDbEntity
  8
0
 62
     3
100
AcDbText
 10
951.3773780000001
 20
651.5993959999997
 30
0.0
 40
4.5
  1
口　　金
  7
高4.5
100
AcDbText
  0
TEXT
  5
21B
330
6B
100
AcDbEntity
  8
0
 62
     3
100
AcDbText
 10
951.3773780000001
 20
644.599396
 30
0.0
 40
4.5
  1
質　　量
  7
高4.5
100
AcDbText
  0
TEXT
  5
21C
330
6B
100
AcDbEntity
  8
0
 62
     3
100
AcDbText
 10
982.5267339999999
 20
679.8389829999997
 30
0.0
 40
4.5
  1
100V
  7
高4.5
100
AcDbText
  0
TEXT
  5
21D
330
6B
100
AcDbEntity
  8
0
 62
     3
100
AcDbText
 10
986.533159
 20
672.980961
 30
0.0
 40
4.5
  1
65W
  7
高4.5
100
AcDbText
  0
LINE
  5
21E
330
6B
100
AcDbEntity
  8
0
 62
     3
100
AcDbLine
 10
1011.87169
 20
643.5993959999997
 30
0.0
 11
1011.87169
 21
692.5993959999997
 31
0.0
  0
LINE
  5
21F
330
6B
100
AcDbEntity
  8
0
 62
     7
100
AcDbLine
 10
949.3773779999999
 20
685.5993959999997
 30
0.0
 11
1011.87169
 21
685.5993959999997
 31
0.0
  0
LINE
  5
220
330
6B
100
AcDbEntity
  8
0
 62
     7
100
AcDbLine
 10
949.3773779999999
 20
678.5993959999997
 30
0.0
 11
1011.87169
 21
678.5993959999997
 31
0.0
  0
LINE
  5
221
330
6B
100
AcDbEntity
  8
0
 62
     7
100
AcDbLine
 10
949.3773779999999
 20
671.5993959999997
 30
0.0
 11
1011.87169
 21
671.5993959999997
 31
0.0
  0
LINE
  5
222
330
6B
100
AcDbEntity
  8
0
 62
     7
100
AcDbLine
 10
949.3773779999999
 20
664.5993959999997
 30
0.0
 11
1011.87169
 21
664.5993959999997
 31
0.0
  0
LINE
  5
223
330
6B
100
AcDbEntity
  8
0
 62
     7
100
AcDbLine
 10
949.3773779999999
 20
657.5993959999997
 30
0.0
 11
1011.87169
 21
657.5993959999997
 31
0.0
  0
LINE
  5
224
330
6B
100
AcDbEntity
  8
0
 62
     7
100
AcDbLine
 10
949.3773779999999
 20
650.5993959999997
 30
0.0
 11
1011.87169
 21
650.5993959999997
 31
0.0
  0
LINE
  5
225
330
6B
100
AcDbEntity
  8
0
 62
     7
100
AcDbLine
 10
973.6996224209599
 20
692.5993959999997
 30
0.0
 11
973.6996224209599
 21
643.5993959999997
 31
0.0
  0
LINE
  5
226
330
6B
100
AcDbEntity
  8
0
 62
     7
100
AcDbLine
 10
957.1870493273268
 20
694.053378
 30
0.0
 11
1005.22362924589
 21
694.053378
 31
0.0
  0
LINE
  5
227
330
6B
100
AcDbEntity
  8
0
 62
     3
100
AcDbLine
 10
992.847071
 20
524.4585089999998
 30
0.0
 11
992.847071
 21
530.4585089999998
 31
0.0
  0
LINE
  5
228
330
6B
100
AcDbEntity
  8
0
 62
     3
100
AcDbLine
 10
966.8470710000001
 20
524.4585089999998
 30
0.0
 11
966.8470710000001
 21
530.4585089999998
 31
0.0
  0
LINE
  5
229
330
6B
100
AcDbEntity
  8
0
 62
     3
100
AcDbLine
 10
1018.546434
 20
530.4585089999998
 30
0.0
 11
966.8470710000001
 21
530.4585089999998
 31
0.0
  0
TEXT
  5
22A
330
6B
100
AcDbEntity
  8
0
 62
     3
100
AcDbText
 10
972.842669
 20
525.2548579999999
 30
0.0
 40
4.5
  1
コード
  7
高4.5
100
AcDbText
  0
LINE
  5
22B
330
6B
100
AcDbEntity
  8
0
 62
     7
100
AcDbLine
 10
939.7641390000003
 20
751.5981519999997
 30
0.0
 11
937.864139
 21
748.3072549999997
 31
0.0
  0
LINE
  5
22C
330
6B
100
AcDbEntity
  8
0
 62
     7
100
AcDbLine
 10
939.7641390000003
 20
751.5981519999997
 30
0.0
 11
941.664139
 21
748.3072549999997
 31
0.0
  0
LINE
  5
22D
330
6B
100
AcDbEntity
  8
0
 62
     7
100
AcDbLine
 10
937.864139
 20
748.3072549999997
 30
0.0
 11
941.664139
 21
748.3072549999997
 31
0.0
  0
LINE
  5
22E
330
6B
100
AcDbEntity
  8
0
 62
     7
100
AcDbLine
 10
939.7641390000003
 20
746.4419409999996
 30
0.0
 11
937.864139
 21
743.1510449999997
 31
0.0
  0
LINE
  5
22F
330
6B
100
AcDbEntity
  8
0
 62
     7
100
AcDbLine
 10
939.7641390000003
 20
746.4419409999996
 30
0.0
 11
941.664139
 21
743.1510449999997
 31
0.0
  0
LINE
  5
230
330
6B
100
AcDbEntity
  8
0
 62
     7
100
AcDbLine
 10
937.864139
 20
743.1510449999997
 30
0.0
 11
941.664139
 21
743.1510449999997
 31
0.0
  0
TEXT
  5
231
330
6B
100
AcDbEntity
  8
0
 62
     3
100
AcDbText
 10
978.3339640000001
 20
686.745811
 30
0.0
 40
4.5
  1
F65W-SF
  7
高4.5
100
AcDbText
  0
TEXT
  5
232
330
6B
100
AcDbEntity
  8
0
 62
     3
100
AcDbText
 10
978.8131379999999
 20
666.0741329999997
 30
0.0
 40
4.5
  1
4000Lm
  7
高4.5
100
AcDbText
  0
TEXT
  5
233
330
6B
100
AcDbEntity
  8
0
 62
     3
100
AcDbText
 10
976.4749469999999
 20
659.127375
 30
0.0
 40
4.5
  1
約6000時間
  7
高4.5
100
AcDbText
  0
TEXT
  5
234
330
6B
100
AcDbEntity
  8
0
 62
     3
100
AcDbText
 10
984.532165
 20
645.31372
 30
0.0
 40
4.5
  1
205g
  7
高4.5
100
AcDbText
  0
TEXT
  5
235
330
6B
100
AcDbEntity
  8
0
 62
     3
100
AcDbText
 10
976.1488789999999
 20
651.9321559999997
 30
0.0
 40
4.5
  1
GX10Q-4
  7
高4.5
100
AcDbText
  0
TEXT
  5
236
330
6B
100
AcDbEntity
  8
0
 62
     3
100
AcDbText
 10
935.9207400423693
 20
516.0109259999997
 30
0.0
 40
4.5
  1
蛍光灯
  7
高4.5
100
AcDbText
  0
TEXT
  5
237
330
6B
100
AcDbEntity
  8
0
 62
     3
100
AcDbText
 10
929.743713
 20
509.0728789999998
 30
0.0
 40
4.5
  1
F65W-SF
  7
高4.5
100
AcDbText
  0
TEXT
  5
238
330
6B
100
AcDbEntity
  8
0
 62
     3
100
AcDbText
 10
970.8666868434576
 20
485.6859555796829
 30
0.0
 40
6.299999999999998
  1
F65W-SF
  7
高6.3
100
AcDbText
  0
TEXT
  5
239
330
6B
100
AcDbEntity
  8
0
 62
     3
100
AcDbText
 10
983.43062
 20
495.232925
 30
0.0
 40
3.2
  1
2008.09.04
  7
高3.2
100
AcDbText
  0
TEXT
  5
23A
330
6B
100
AcDbEntity
  8
0
 62
     3
100
AcDbText
 10
997.2119303189113
 20
525.1026459999998
 30
0.0
 40
4.5
  1
8999
  7
高4.5
100
AcDbText
  0
LINE
  5
416
330
6B
100
AcDbEntity
  8
0
 62
     3
100
AcDbLine
 10
911.307055129118
 20
580.6168008964907
 30
0.0
 11
890.807055129118
 21
580.6168008964907
 31
0.0
  0
LINE
  5
417
330
6B
100
AcDbEntity
  8
0
 62
     3
100
AcDbLine
 10
911.307055129118
 20
584.8668008964907
 30
0.0
 11
911.307055129118
 21
580.6168008964907
 31
0.0
  0
LINE
  5
418
330
6B
100
AcDbEntity
  8
0
 62
     3
100
AcDbLine
 10
890.807055129118
 20
580.6168008964907
 30
0.0
 11
890.807055129118
 21
584.8668008964907
 31
0.0
  0
LINE
  5
419
330
6B
100
AcDbEntity
  8
0
 62
     3
100
AcDbLine
 10
909.557055129118
 20
587.6168008964907
 30
0.0
 11
909.557055129118
 21
584.8668008964907
 31
0.0
  0
LINE
  5
41A
330
6B
100
AcDbEntity
  8
0
 62
     3
100
AcDbLine
 10
892.557055129118
 20
587.6168008964907
 30
0.0
 11
892.557055129118
 21
584.8668008964907
 31
0.0
  0
LINE
  5
41B
330
6B
100
AcDbEntity
  8
0
 62
     3
100
AcDbLine
 10
911.307055129118
 20
584.8668008964907
 30
0.0
 11
909.557055129118
 21
584.8668008964907
 31
0.0
  0
LINE
  5
41C
330
6B
100
AcDbEntity
  8
0
 62
     3
100
AcDbLine
 10
871.057055129118
 20
587.6168008964907
 30
0.0
 11
931.057055129118
 21
587.6168008964907
 31
0.0
  0
LINE
  5
41D
330
6B
100
AcDbEntity
  8
0
 62
     3
100
AcDbLine
 10
871.057055129118
 20
595.1168008964907
 30
0.0
 11
931.057055129118
 21
595.1168008964907
 31
0.0
  0
LINE
  5
41E
330
6B
100
AcDbEntity
  8
0
 62
     3
100
AcDbLine
 10
929.807055129118
 20
597.1168008964907
 30
0.0
 11
872.3070551291179
 21
597.1168008964907
 31
0.0
  0
LINE
  5
41F
330
6B
100
AcDbEntity
  8
0
 62
     3
100
AcDbLine
 10
931.057055129118
 20
587.6168008964907
 30
0.0
 11
931.057055129118
 21
595.1168008964907
 31
0.0
  0
LINE
  5
420
330
6B
100
AcDbEntity
  8
0
 62
     3
100
AcDbLine
 10
871.057055129118
 20
595.1168008964907
 30
0.0
 11
871.057055129118
 21
587.6168008964907
 31
0.0
  0
LINE
  5
421
330
6B
100
AcDbEntity
  8
0
 62
     3
100
AcDbLine
 10
929.807055129118
 20
597.1168008964907
 30
0.0
 11
929.807055129118
 21
595.1168008964907
 31
0.0
  0
LINE
  5
422
330
6B
100
AcDbEntity
  8
0
 62
     3
100
AcDbLine
 10
872.3070551291179
 20
597.1168008964907
 30
0.0
 11
872.3070551291179
 21
595.1168008964907
 31
0.0
  0
LINE
  5
423
330
6B
100
AcDbEntity
  8
0
 62
     3
100
AcDbLine
 10
909.0570551291179
 20
587.6168008964907
 30
0.0
 11
909.0570551291179
 21
580.6168008964907
 31
0.0
  0
LINE
  5
424
330
6B
100
AcDbEntity
  8
0
 62
     3
100
AcDbLine
 10
893.0570551291182
 20
587.6168008964907
 30
0.0
 11
893.0570551291182
 21
580.6168008964907
 31
0.0
  0
LINE
  5
425
330
6B
100
AcDbEntity
  8
0
 62
     3
100
AcDbLine
 10
892.557055129118
 20
584.8668008964907
 30
0.0
 11
890.807055129118
 21
584.8668008964907
 31
0.0
  0
LINE
  5
426
330
6B
100
AcDbEntity
  8
0
 62
     3
100
AcDbLine
 10
903.5570551291179
 20
580.6168008964907
 30
0.0
 11
903.5570551291179
 21
584.8668008964907
 31
0.0
  0
LINE
  5
427
330
6B
100
AcDbEntity
  8
0
 62
     3
100
AcDbLine
 10
898.557055129118
 20
580.6168008964907
 30
0.0
 11
898.557055129118
 21
584.8668008964907
 31
0.0
  0
LINE
  5
428
330
6B
100
AcDbEntity
  8
0
 62
     3
100
AcDbLine
 10
903.5570551291179
 20
584.8668008964907
 30
0.0
 11
898.557055129118
 21
584.8668008964907
 31
0.0
  0
LINE
  5
429
330
6B
100
AcDbEntity
  8
0
 62
     3
100
AcDbLine
 10
901.8070551291179
 20
597.1168008964907
 30
0.0
 11
901.8070551291179
 21
693.1168008964907
 31
0.0
  0
LINE
  5
42A
330
6B
100
AcDbEntity
  8
0
 62
     3
100
AcDbLine
 10
900.307055129118
 20
597.1168008964907
 30
0.0
 11
900.307055129118
 21
693.1168008964907
 31
0.0
  0
LINE
  5
42B
330
6B
100
AcDbEntity
  8
0
 62
     3
100
AcDbLine
 10
909.557055129118
 20
597.1168008964907
 30
0.0
 11
909.557055129118
 21
691.3668008964907
 31
0.0
  0
LINE
  5
42C
330
6B
100
AcDbEntity
  8
0
 62
     3
100
AcDbLine
 10
892.557055129118
 20
597.1168008964907
 30
0.0
 11
892.557055129118
 21
691.3668008964907
 31
0.0
  0
LINE
  5
42D
330
6B
100
AcDbEntity
  8
0
 62
     3
100
AcDbLine
 10
911.5570551291179
 20
597.1168008964907
 30
0.0
 11
911.5570551291179
 21
691.3668008964907
 31
0.0
  0
LINE
  5
42E
330
6B
100
AcDbEntity
  8
0
 62
     3
100
AcDbLine
 10
890.557055129118
 20
597.1168008964907
 30
0.0
 11
890.557055129118
 21
691.3668008964907
 31
0.0
  0
LINE
  5
42F
330
6B
100
AcDbEntity
  8
0
 62
     3
100
AcDbLine
 10
919.307055129118
 20
597.1168008964907
 30
0.0
 11
919.307055129118
 21
693.1168008964907
 31
0.0
  0
LINE
  5
430
330
6B
100
AcDbEntity
  8
0
 62
     3
100
AcDbLine
 10
882.807055129118
 20
597.1168008964907
 30
0.0
 11
882.807055129118
 21
693.1168008964907
 31
0.0
  0
LINE
  5
431
330
6B
100
AcDbEntity
  8
0
 62
     3
100
AcDbLine
 10
920.807055129118
 20
597.1168008964907
 30
0.0
 11
920.807055129118
 21
693.1168008964907
 31
0.0
  0
LINE
  5
432
330
6B
100
AcDbEntity
  8
0
 62
     3
100
AcDbLine
 10
881.3070551291179
 20
597.1168008964907
 30
0.0
 11
881.3070551291179
 21
693.1168008964907
 31
0.0
  0
LINE
  5
433
330
6B
100
AcDbEntity
  8
0
 62
     3
100
AcDbLine
 10
928.5570551291179
 20
597.1168008964907
 30
0.0
 11
928.5570551291179
 21
691.3668008964907
 31
0.0
  0
LINE
  5
434
330
6B
100
AcDbEntity
  8
0
 62
     3
100
AcDbLine
 10
873.557055129118
 20
597.1168008964907
 30
0.0
 11
873.557055129118
 21
691.3668008964907
 31
0.0
  0
ARC
  5
435
330
6B
100
AcDbEntity
  8
0
 62
     3
100
AcDbCircle
 10
920.057055129118
 20
691.3668008964907
 30
0.0
 40
8.499999999999998
100
AcDbArc
 50
0.0
 51
180.0
  0
ARC
  5
436
330
6B
100
AcDbEntity
  8
0
 62
     3
100
AcDbCircle
 10
901.0570551291179
 20
691.3668008964907
 30
0.0
 40
8.499999999999998
100
AcDbArc
 50
0.0
 51
180.0
  0
ARC
  5
437
330
6B
100
AcDbEntity
  8
0
 62
     3
100
AcDbCircle
 10
882.0570551291179
 20
691.3668008964907
 30
0.0
 40
8.499999999999998
100
AcDbArc
 50
0.0
 51
180.0
  0
ARC
  5
438
330
6B
100
AcDbEntity
  8
0
 62
     3
100
AcDbCircle
 10
920.057055129118
 20
693.1168008964907
 30
0.0
 40
0.75
100
AcDbArc
 50
0.0
 51
180.0
  0
ARC
  5
439
330
6B
100
AcDbEntity
  8
0
 62
     3
100
AcDbCircle
 10
901.0570551291179
 20
693.1168008964907
 30
0.0
 40
0.75
100
AcDbArc
 50
0.0
 51
180.0
  0
ARC
  5
43A
330
6B
100
AcDbEntity
  8
0
 62
     3
100
AcDbCircle
 10
882.0570551291179
 20
693.1168008964907
 30
0.0
 40
0.75
100
AcDbArc
 50
0.0
 51
180.0
  0
LINE
  5
43B
330
6B
100
AcDbEntity
  8
0
 62
     3
100
AcDbLine
 10
892.557055129118
 20
688.8668008964907
 30
0.0
 11
890.557055129118
 21
688.8668008964907
 31
0.0
  0
LINE
  5
43C
330
6B
100
AcDbEntity
  8
0
 62
     3
100
AcDbLine
 10
892.557055129118
 20
681.8668008964907
 30
0.0
 11
890.557055129118
 21
681.8668008964907
 31
0.0
  0
LINE
  5
43D
330
6B
100
AcDbEntity
  8
0
 62
     3
100
AcDbLine
 10
911.5570551291179
 20
601.6168008964907
 30
0.0
 11
909.557055129118
 21
601.6168008964907
 31
0.0
  0
LINE
  5
43E
330
6B
100
AcDbEntity
  8
0
 62
     3
100
AcDbLine
 10
911.5570551291179
 20
605.1168008964907
 30
0.0
 11
909.557055129118
 21
605.1168008964907
 31
0.0
  0
LINE
  5
43F
330
6B
100
AcDbEntity
  8
0
 62
     3
100
AcDbLine
 10
909.557055129118
 20
688.8668008964907
 30
0.0
 11
911.5570551291179
 21
688.8668008964907
 31
0.0
  0
LINE
  5
440
330
6B
100
AcDbEntity
  8
0
 62
     3
100
AcDbLine
 10
909.557055129118
 20
681.8668008964907
 30
0.0
 11
911.5570551291179
 21
681.8668008964907
 31
0.0
  0
LINE
  5
441
330
6B
100
AcDbEntity
  8
0
 62
     3
100
AcDbLine
 10
892.557055129118
 20
605.1168008964907
 30
0.0
 11
890.557055129118
 21
605.1168008964907
 31
0.0
  0
LINE
  5
442
330
6B
100
AcDbEntity
  8
0
 62
     3
100
AcDbLine
 10
892.557055129118
 20
601.6168008964907
 30
0.0
 11
890.557055129118
 21
601.6168008964907
 31
0.0
  0
LINE
  5
443
330
6B
100
AcDbEntity
  8
0
 62
     7
100
AcDbLine
 10
902.307055129118
 20
577.9918008964907
 30
0.0
 11
902.307055129118
 21
580.6168008964907
 31
0.0
  0
LINE
  5
444
330
6B
100
AcDbEntity
  8
0
 62
     7
100
AcDbLine
 10
899.807055129118
 20
577.9918008964907
 30
0.0
 11
899.807055129118
 21
580.6168008964907
 31
0.0
  0
LINE
  5
445
330
6B
100
AcDbEntity
  8
0
 62
     7
100
AcDbLine
 10
898.557055129118
 20
577.9918008964907
 30
0.0
 11
898.557055129118
 21
580.6168008964907
 31
0.0
  0
LINE
  5
446
330
6B
100
AcDbEntity
  8
0
 62
     7
100
AcDbLine
 10
903.5570551291179
 20
577.9918008964907
 30
0.0
 11
903.5570551291179
 21
580.6168008964907
 31
0.0
  0
ARC
  5
447
330
6B
100
AcDbEntity
  8
0
 62
     7
100
AcDbCircle
 10
902.932055129118
 20
577.9918008964907
 30
0.0
 40
0.625
100
AcDbArc
 50
180.0
 51
0.0
  0
ARC
  5
448
330
6B
100
AcDbEntity
  8
0
 62
     7
100
AcDbCircle
 10
899.182055129118
 20
577.9918008964907
 30
0.0
 40
0.625
100
AcDbArc
 50
180.0
 51
0.0
  0
LINE
  5
60C
330
6B
100
AcDbEntity
  8
0
100
AcDbLine
 10
871.057055129118
 20
587.3668008964907
 30
0.0
 11
871.057055129118
 21
569.9925294679192
 31
0.0
  0
LINE
  5
60D
330
6B
100
AcDbEntity
  8
0
100
AcDbLine
 10
931.057055129118
 20
587.3668008964907
 30
0.0
 11
931.057055129118
 21
569.9925294679192
 31
0.0
  0
LINE
  5
60E
330
6B
100
AcDbEntity
  8
0
100
AcDbLine
 10
873.557055129118
 20
571.2425294679191
 30
0.0
 11
928.5570551291179
 21
571.2425294679191
 31
0.0
  0
LINE
  5
614
330
6B
100
AcDbEntity
  8
0
100
AcDbLine
 10
898.932055129118
 20
577.3668008964907
 30
0.0
 11
864.7968872719747
 21
577.3668008964907
 31
0.0
  0
LINE
  5
615
330
6B
100
AcDbEntity
  8
0
100
AcDbLine
 10
881.8070551291178
 20
699.8668008964907
 30
0.0
 11
864.7968872719747
 21
699.8668008964907
 31
0.0
  0
LINE
  5
616
330
6B
100
AcDbEntity
  8
0
100
AcDbLine
 10
866.0468872719748
 20
579.8668008964908
 30
0.0
 11
866.0468872719748
 21
697.3668008964907
 31
0.0
  0
LINE
  5
61A
330
6B
100
AcDbEntity
  8
0
 62
     2
100
AcDbLine
 10
914.3694029999997
 20
762.250669
 30
0.0
 11
914.3507749999999
 21
762.369936
 31
0.0
  0
LINE
  5
61B
330
6B
100
AcDbEntity
  8
0
 62
     2
100
AcDbLine
 10
914.3507749999999
 20
762.369936
 30
0.0
 11
914.3284039999999
 21
762.484141
 31
0.0
  0
LINE
  5
61C
330
6B
100
AcDbEntity
  8
0
 62
     2
100
AcDbLine
 10
914.3284039999999
 20
762.484141
 30
0.0
 11
914.3024619999996
 21
762.5924
 31
0.0
  0
LINE
  5
61D
330
6B
100
AcDbEntity
  8
0
 62
     2
100
AcDbLine
 10
914.3024619999996
 20
762.5924
 30
0.0
 11
914.27315
 21
762.6938769999997
 31
0.0
  0
LINE
  5
61E
330
6B
100
AcDbEntity
  8
0
 62
     2
100
AcDbLine
 10
914.27315
 20
762.6938769999997
 30
0.0
 11
914.2406939999997
 21
762.7877859999999
 31
0.0
  0
LINE
  5
61F
330
6B
100
AcDbEntity
  8
0
 62
     2
100
AcDbLine
 10
914.2406939999997
 20
762.7877859999999
 30
0.0
 11
914.2053459999999
 21
762.873403
 31
0.0
  0
LINE
  5
620
330
6B
100
AcDbEntity
  8
0
 62
     2
100
AcDbLine
 10
914.2053459999999
 20
762.873403
 30
0.0
 11
914.167377
 21
762.9500659999997
 31
0.0
  0
LINE
  5
621
330
6B
100
AcDbEntity
  8
0
 62
     2
100
AcDbLine
 10
914.167377
 20
762.9500659999997
 30
0.0
 11
914.1270829999999
 21
763.0171809999997
 31
0.0
  0
LINE
  5
622
330
6B
100
AcDbEntity
  8
0
 62
     2
100
AcDbLine
 10
914.1270829999999
 20
763.0171809999997
 30
0.0
 11
914.0847739999999
 21
763.0742309999996
 31
0.0
  0
LINE
  5
623
330
6B
100
AcDbEntity
  8
0
 62
     2
100
AcDbLine
 10
914.0847739999999
 20
763.0742309999996
 30
0.0
 11
914.040778
 21
763.120773
 31
0.0
  0
LINE
  5
624
330
6B
100
AcDbEntity
  8
0
 62
     2
100
AcDbLine
 10
914.040778
 20
763.120773
 30
0.0
 11
913.9954339999999
 21
763.156449
 31
0.0
  0
LINE
  5
625
330
6B
100
AcDbEntity
  8
0
 62
     2
100
AcDbLine
 10
913.9954339999999
 20
763.156449
 30
0.0
 11
913.9490929999999
 21
763.1809829999999
 31
0.0
  0
LINE
  5
626
330
6B
100
AcDbEntity
  8
0
 62
     2
100
AcDbLine
 10
913.9490929999999
 20
763.1809829999999
 30
0.0
 11
913.9021129999999
 21
763.1941849999996
 31
0.0
  0
LINE
  5
627
330
6B
100
AcDbEntity
  8
0
 62
     2
100
AcDbLine
 10
913.9021129999999
 20
763.1941849999996
 30
0.0
 11
913.8548570000001
 21
763.195953
 31
0.0
  0
LINE
  5
628
330
6B
100
AcDbEntity
  8
0
 62
     2
100
AcDbLine
 10
913.8548570000001
 20
763.195953
 30
0.0
 11
913.807691
 21
763.186273
 31
0.0
  0
LINE
  5
629
330
6B
100
AcDbEntity
  8
0
 62
     2
100
AcDbLine
 10
913.807691
 20
763.186273
 30
0.0
 11
913.7609789999999
 21
763.1652199999997
 31
0.0
  0
LINE
  5
62A
330
6B
100
AcDbEntity
  8
0
 62
     2
100
AcDbLine
 10
913.7609789999999
 20
763.1652199999997
 30
0.0
 11
913.715082
 21
763.132958
 31
0.0
  0
LINE
  5
62B
330
6B
100
AcDbEntity
  8
0
 62
     2
100
AcDbLine
 10
913.715082
 20
763.132958
 30
0.0
 11
913.6703550000001
 21
763.089734
 31
0.0
  0
LINE
  5
62C
330
6B
100
AcDbEntity
  8
0
 62
     2
100
AcDbLine
 10
913.6703550000001
 20
763.089734
 30
0.0
 11
913.6271439999999
 21
763.035884
 31
0.0
  0
LINE
  5
62D
330
6B
100
AcDbEntity
  8
0
 62
     2
100
AcDbLine
 10
913.6271439999999
 20
763.035884
 30
0.0
 11
913.585782
 21
762.971823
 31
0.0
  0
LINE
  5
62E
330
6B
100
AcDbEntity
  8
0
 62
     2
100
AcDbLine
 10
913.585782
 20
762.971823
 30
0.0
 11
913.5465899999999
 21
762.898048
 31
0.0
  0
LINE
  5
62F
330
6B
100
AcDbEntity
  8
0
 62
     2
100
AcDbLine
 10
913.5465899999999
 20
762.898048
 30
0.0
 11
913.50987
 21
762.815127
 31
0.0
  0
LINE
  5
630
330
6B
100
AcDbEntity
  8
0
 62
     2
100
AcDbLine
 10
913.50987
 20
762.815127
 30
0.0
 11
913.475906
 21
762.7237019999999
 31
0.0
  0
LINE
  5
631
330
6B
100
AcDbEntity
  8
0
 62
     2
100
AcDbLine
 10
913.475906
 20
762.7237019999999
 30
0.0
 11
913.4449609999997
 21
762.6244799999997
 31
0.0
  0
LINE
  5
632
330
6B
100
AcDbEntity
  8
0
 62
     2
100
AcDbLine
 10
913.4449609999997
 20
762.6244799999997
 30
0.0
 11
913.4172730000001
 21
762.5182269999997
 31
0.0
  0
LINE
  5
633
330
6B
100
AcDbEntity
  8
0
 62
     2
100
AcDbLine
 10
913.4172730000001
 20
762.5182269999997
 30
0.0
 11
913.393057
 21
762.4057650000001
 31
0.0
  0
LINE
  5
634
330
6B
100
AcDbEntity
  8
0
 62
     2
100
AcDbLine
 10
913.393057
 20
762.4057650000001
 30
0.0
 11
913.3725009999999
 21
762.2879629999999
 31
0.0
  0
LINE
  5
635
330
6B
100
AcDbEntity
  8
0
 62
     2
100
AcDbLine
 10
913.3725009999999
 20
762.2879629999999
 30
0.0
 11
913.3557620000001
 21
762.165732
 31
0.0
  0
LINE
  5
636
330
6B
100
AcDbEntity
  8
0
 62
     2
100
AcDbLine
 10
913.3557620000001
 20
762.165732
 30
0.0
 11
913.3429709999999
 21
762.040016
 31
0.0
  0
LINE
  5
637
330
6B
100
AcDbEntity
  8
0
 62
     2
100
AcDbLine
 10
913.3429709999999
 20
762.040016
 30
0.0
 11
913.334225
 21
761.911787
 31
0.0
  0
LINE
  5
638
330
6B
100
AcDbEntity
  8
0
 62
     2
100
AcDbLine
 10
913.334225
 20
761.911787
 30
0.0
 11
913.329594
 21
761.782037
 31
0.0
  0
LINE
  5
639
330
6B
100
AcDbEntity
  8
0
 62
     2
100
AcDbLine
 10
913.329594
 20
761.782037
 30
0.0
 11
913.3291119999999
 21
761.6517679999997
 31
0.0
  0
LINE
  5
63A
330
6B
100
AcDbEntity
  8
0
 62
     2
100
AcDbLine
 10
913.3291119999999
 20
761.6517679999997
 30
0.0
 11
913.332783
 21
761.521986
 31
0.0
  0
LINE
  5
63B
330
6B
100
AcDbEntity
  8
0
 62
     2
100
AcDbLine
 10
913.332783
 20
761.521986
 30
0.0
 11
913.3405790000001
 21
761.393697
 31
0.0
  0
LINE
  5
63C
330
6B
100
AcDbEntity
  8
0
 62
     2
100
AcDbLine
 10
913.3405790000001
 20
761.393697
 30
0.0
 11
913.35244
 21
761.2678889999997
 31
0.0
  0
LINE
  5
63D
330
6B
100
AcDbEntity
  8
0
 62
     2
100
AcDbLine
 10
913.35244
 20
761.2678889999997
 30
0.0
 11
913.3682740000001
 21
761.1455379999996
 31
0.0
  0
LINE
  5
63E
330
6B
100
AcDbEntity
  8
0
 62
     2
100
AcDbLine
 10
913.3682740000001
 20
761.1455379999996
 30
0.0
 11
913.387958
 21
761.027587
 31
0.0
  0
LINE
  5
63F
330
6B
100
AcDbEntity
  8
0
 62
     2
100
AcDbLine
 10
913.387958
 20
761.027587
 30
0.0
 11
913.4113409999999
 21
760.914949
 31
0.0
  0
LINE
  5
640
330
6B
100
AcDbEntity
  8
0
 62
     2
100
AcDbLine
 10
913.4113409999999
 20
760.914949
 30
0.0
 11
913.438241
 21
760.808494
 31
0.0
  0
LINE
  5
641
330
6B
100
AcDbEntity
  8
0
 62
     2
100
AcDbLine
 10
913.438241
 20
760.808494
 30
0.0
 11
913.4684509999999
 21
760.7090459999997
 31
0.0
  0
LINE
  5
642
330
6B
100
AcDbEntity
  8
0
 62
     2
100
AcDbLine
 10
913.4684509999999
 20
760.7090459999997
 30
0.0
 11
913.501738
 21
760.6173719999997
 31
0.0
  0
LINE
  5
643
330
6B
100
AcDbEntity
  8
0
 62
     2
100
AcDbLine
 10
913.501738
 20
760.6173719999997
 30
0.0
 11
913.5378429999999
 21
760.5341809999996
 31
0.0
  0
LINE
  5
644
330
6B
100
AcDbEntity
  8
0
 62
     2
100
AcDbLine
 10
913.5378429999999
 20
760.5341809999996
 30
0.0
 11
913.576489
 21
760.4601179999997
 31
0.0
  0
LINE
  5
645
330
6B
100
AcDbEntity
  8
0
 62
     2
100
AcDbLine
 10
913.576489
 20
760.4601179999997
 30
0.0
 11
913.6173750000001
 21
760.395753
 31
0.0
  0
LINE
  5
646
330
6B
100
AcDbEntity
  8
0
 62
     2
100
AcDbLine
 10
913.6173750000001
 20
760.395753
 30
0.0
 11
913.6601869999999
 21
760.341584
 31
0.0
  0
LINE
  5
647
330
6B
100
AcDbEntity
  8
0
 62
     2
100
AcDbLine
 10
913.6601869999999
 20
760.341584
 30
0.0
 11
913.7045930000001
 21
760.2980309999996
 31
0.0
  0
LINE
  5
648
330
6B
100
AcDbEntity
  8
0
 62
     2
100
AcDbLine
 10
913.7045930000001
 20
760.2980309999996
 30
0.0
 11
913.7502490000001
 21
760.265429
 31
0.0
  0
LINE
  5
649
330
6B
100
AcDbEntity
  8
0
 62
     2
100
AcDbLine
 10
913.7502490000001
 20
760.265429
 30
0.0
 11
913.796804
 21
760.244032
 31
0.0
  0
LINE
  5
64A
330
6B
100
AcDbEntity
  8
0
 62
     2
100
AcDbLine
 10
913.796804
 20
760.244032
 30
0.0
 11
913.8438980000001
 21
760.234003
 31
0.0
  0
LINE
  5
64B
330
6B
100
AcDbEntity
  8
0
 62
     2
100
AcDbLine
 10
913.8438980000001
 20
760.234003
 30
0.0
 11
913.891165
 21
760.2354209999997
 31
0.0
  0
LINE
  5
64C
330
6B
100
AcDbEntity
  8
0
 62
     2
100
AcDbLine
 10
913.891165
 20
760.2354209999997
 30
0.0
 11
913.9382409999999
 21
760.248275
 31
0.0
  0
LINE
  5
64D
330
6B
100
AcDbEntity
  8
0
 62
     2
100
AcDbLine
 10
913.9382409999999
 20
760.248275
 30
0.0
 11
913.984763
 21
760.2724649999997
 31
0.0
  0
LINE
  5
64E
330
6B
100
AcDbEntity
  8
0
 62
     2
100
AcDbLine
 10
913.984763
 20
760.2724649999997
 30
0.0
 11
914.03037
 21
760.307805
 31
0.0
  0
LINE
  5
64F
330
6B
100
AcDbEntity
  8
0
 62
     2
100
AcDbLine
 10
914.03037
 20
760.307805
 30
0.0
 11
914.0747089999999
 21
760.354021
 31
0.0
  0
LINE
  5
650
330
6B
100
AcDbEntity
  8
0
 62
     2
100
AcDbLine
 10
914.0747089999999
 20
760.354021
 30
0.0
 11
914.1174389999999
 21
760.410755
 31
0.0
  0
LINE
  5
651
330
6B
100
AcDbEntity
  8
0
 62
     2
100
AcDbLine
 10
914.1174389999999
 20
760.410755
 30
0.0
 11
914.1582289999997
 21
760.477571
 31
0.0
  0
LINE
  5
652
330
6B
100
AcDbEntity
  8
0
 62
     2
100
AcDbLine
 10
914.1582289999997
 20
760.477571
 30
0.0
 11
914.1967629999999
 21
760.5539499999999
 31
0.0
  0
LINE
  5
653
330
6B
100
AcDbEntity
  8
0
 62
     2
100
AcDbLine
 10
914.1967629999999
 20
760.5539499999999
 30
0.0
 11
914.2327449999999
 21
760.639303
 31
0.0
  0
LINE
  5
654
330
6B
100
AcDbEntity
  8
0
 62
     2
100
AcDbLine
 10
914.2327449999999
 20
760.639303
 30
0.0
 11
914.265894
 21
760.73297
 31
0.0
  0
LINE
  5
655
330
6B
100
AcDbEntity
  8
0
 62
     2
100
AcDbLine
 10
914.265894
 20
760.73297
 30
0.0
 11
914.295957
 21
760.8342269999996
 31
0.0
  0
LINE
  5
656
330
6B
100
AcDbEntity
  8
0
 62
     2
100
AcDbLine
 10
914.295957
 20
760.8342269999996
 30
0.0
 11
914.322699
 21
760.9422910000001
 31
0.0
  0
LINE
  5
657
330
6B
100
AcDbEntity
  8
0
 62
     2
100
AcDbLine
 10
914.322699
 20
760.9422910000001
 30
0.0
 11
914.3459149999999
 21
761.056327
 31
0.0
  0
LINE
  5
658
330
6B
100
AcDbEntity
  8
0
 62
     2
100
AcDbLine
 10
914.3459149999999
 20
761.056327
 30
0.0
 11
914.3654240000001
 21
761.175454
 31
0.0
  0
TEXT
  5
659
330
6B
100
AcDbEntity
  8
0
  6
Continuous
 62
     4
100
AcDbText
 10
897.807055129118
 20
571.8675294679192
 30
0.0
 40
3.0
  1
120
100
AcDbText
  0
LINE
  5
65A
330
6B
100
AcDbEntity
  8
0
  6
ByBlock
 62
     0
370
    -2
100
AcDbLine
 10
928.5570551291179
 20
571.9124019679192
 30
0.0
 11
931.057055129118
 21
571.2425294679191
 31
0.0
  0
LINE
  5
65B
330
6B
100
AcDbEntity
  8
0
  6
ByBlock
 62
     0
370
    -2
100
AcDbLine
 10
931.057055129118
 20
571.2425294679191
 30
0.0
 11
928.5570551291179
 21
570.5726569679192
 31
0.0
  0
LINE
  5
65C
330
6B
100
AcDbEntity
  8
0
  6
ByBlock
 62
     0
370
    -2
100
AcDbLine
 10
931.057055129118
 20
571.2425294679191
 30
0.0
 11
928.5570551291179
 21
571.2425294679191
 31
0.0
  0
LINE
  5
65D
330
6B
100
AcDbEntity
  8
0
  6
ByBlock
 62
     0
370
    -2
100
AcDbLine
 10
873.557055129118
 20
570.5726569679192
 30
0.0
 11
871.057055129118
 21
571.2425294679191
 31
0.0
  0
LINE
  5
65E
330
6B
100
AcDbEntity
  8
0
  6
ByBlock
 62
     0
370
    -2
100
AcDbLine
 10
871.057055129118
 20
571.2425294679191
 30
0.0
 11
873.557055129118
 21
571.9124019679192
 31
0.0
  0
LINE
  5
65F
330
6B
100
AcDbEntity
  8
0
  6
ByBlock
 62
     0
370
    -2
100
AcDbLine
 10
871.057055129118
 20
571.2425294679191
 30
0.0
 11
873.557055129118
 21
571.2425294679191
 31
0.0
  0
TEXT
  5
660
330
6B
100
AcDbEntity
  8
0
  6
Continuous
 62
     4
100
AcDbText
 10
865.4218872719747
 20
634.616800896491
 30
0.0
 40
3.0
  1
245
 50
90.0
100
AcDbText
  0
LINE
  5
661
330
6B
100
AcDbEntity
  8
0
  6
ByBlock
 62
     0
370
    -2
100
AcDbLine
 10
865.3770147719749
 20
697.3668008964907
 30
0.0
 11
866.0468872719748
 21
699.8668008964907
 31
0.0
  0
LINE
  5
662
330
6B
100
AcDbEntity
  8
0
  6
ByBlock
 62
     0
370
    -2
100
AcDbLine
 10
866.0468872719748
 20
699.8668008964907
 30
0.0
 11
866.7167597719748
 21
697.3668008964907
 31
0.0
  0
LINE
  5
663
330
6B
100
AcDbEntity
  8
0
  6
ByBlock
 62
     0
370
    -2
100
AcDbLine
 10
866.0468872719748
 20
699.8668008964907
 30
0.0
 11
866.0468872719748
 21
697.3668008964907
 31
0.0
  0
LINE
  5
664
330
6B
100
AcDbEntity
  8
0
  6
ByBlock
 62
     0
370
    -2
100
AcDbLine
 10
866.7167597719748
 20
579.8668008964908
 30
0.0
 11
866.0468872719748
 21
577.3668008964907
 31
0.0
  0
LINE
  5
665
330
6B
100
AcDbEntity
  8
0
  6
ByBlock
 62
     0
370
    -2
100
AcDbLine
 10
866.0468872719748
 20
577.3668008964907
 30
0.0
 11
865.3770147719749
 21
579.8668008964908
 31
0.0
  0
LINE
  5
666
330
6B
100
AcDbEntity
  8
0
  6
ByBlock
 62
     0
370
    -2
100
AcDbLine
 10
866.0468872719748
 20
577.3668008964907
 30
0.0
 11
866.0468872719748
 21
579.8668008964908
 31
0.0
  0
ENDSEC
  0
SECTION
  2
OBJECTS
  0
DICTIONARY
  5
C
330
0
100
AcDbDictionary
281
     1
  3
ACAD_2007HEADERVARS_RT
350
66A
  3
ACAD_COLOR
350
62
  3
ACAD_GROUP
350
D
  3
ACAD_LAYOUT
350
61
  3
ACAD_MATERIAL
350
10
  3
ACAD_MLEADERSTYLE
350
65
  3
ACAD_MLINESTYLE
350
5E
  3
ACAD_PLOTSETTINGS
350
60
  3
ACAD_PLOTSTYLENAME
350
E
  3
ACAD_SCALELIST
350
42
  3
ACAD_TABLESTYLE
350
63
  3
ACAD_VISUALSTYLE
350
29
  3
ACDB_RECOMPOSE_DATA
350
668
  3
AcDbVariableDictionary
350
4DD
  3
DWGPROPS
350
669
  0
DICTIONARY
  5
2E1
330
2
100
AcDbDictionary
280
     1
281
     1
  3
ACAD_LAYERSTATES
360
2E2
  0
DICTIONARY
  5
4D9
330
54
100
AcDbDictionary
280
     1
281
     1
  3
ADSK_XREC_LAYER_RECONCILED
360
4DA
  0
DICTIONARY
  5
612
330
6B
100
AcDbDictionary
280
     1
281
     1
  3
ACAD_SORTENTS
360
613
  0
DICTIONARY
  5
66A
102
{ACAD_REACTORS
330
C
102
}
330
C
100
AcDbDictionary
281
     1
  3
DIMARCSYM
350
66C
  3
DIMFXL
350
66B
  3
DIMJOGANG
350
66D
  0
DICTIONARY
  5
62
102
{ACAD_REACTORS
330
C
102
}
330
C
100
AcDbDictionary
281
     1
  0
DICTIONARY
  5
D
102
{ACAD_REACTORS
330
C
102
}
330
C
100
AcDbDictionary
281
     1
  0
DICTIONARY
  5
61
102
{ACAD_REACTORS
330
C
102
}
330
C
100
AcDbDictionary
281
     1
  3
Model
350
6E
  3
レイアウト1
350
6A
  0
DICTIONARY
  5
10
102
{ACAD_REACTORS
330
C
102
}
330
C
100
AcDbDictionary
281
     1
  3
ByBlock
350
19
  3
ByLayer
350
11
  3
Global
350
21
  0
DICTIONARY
  5
65
102
{ACAD_REACTORS
330
C
102
}
330
C
100
AcDbDictionary
281
     1
  3
Standard
350
66
  0
DICTIONARY
  5
5E
102
{ACAD_REACTORS
330
C
102
}
330
C
100
AcDbDictionary
281
     1
  3
Standard
350
5F
  0
DICTIONARY
  5
60
102
{ACAD_REACTORS
330
C
102
}
330
C
100
AcDbDictionary
281
     1
  0
ACDBDICTIONARYWDFLT
  5
E
102
{ACAD_REACTORS
330
C
102
}
330
C
100
AcDbDictionary
281
     1
  3
Normal
350
F
100
AcDbDictionaryWithDefault
340
F
  0
DICTIONARY
  5
42
102
{ACAD_REACTORS
330
C
102
}
330
C
100
AcDbDictionary
281
     1
  3
A0
350
43
  3
A1
350
44
  3
A2
350
45
  3
A3
350
46
  3
A4
350
47
  3
A5
350
48
  3
A6
350
49
  3
A7
350
4A
  3
A8
350
4B
  3
A9
350
4C
  3
B0
350
4D
  3
B1
350
4E
  3
B2
350
4F
  3
B3
350
50
  3
B4
350
51
  3
B5
350
52
  3
B6
350
53
  0
DICTIONARY
  5
63
102
{ACAD_REACTORS
330
C
102
}
330
C
100
AcDbDictionary
281
     1
  3
Standard
350
64
  0
DICTIONARY
  5
29
102
{ACAD_REACTORS
330
C
102
}
330
C
100
AcDbDictionary
281
     1
  3
2dWireframe
350
2F
  3
3dWireframe
350
2E0
  3
Basic
350
2E
  3
Brighten
350
35
  3
ColorChange
350
39
  3
Conceptual
350
32
  3
Dim
350
34
  3
EdgeColorOff
350
41
  3
Facepattern
350
38
  3
Flat
350
2A
  3
FlatWithEdges
350
2B
  3
Gouraud
350
2C
  3
GouraudWithEdges
350
2D
  3
Hidden
350
31
  3
JitterOff
350
3F
  3
Linepattern
350
37
  3
OverhangOff
350
40
  3
Realistic
350
33
  3
Shaded
350
3E
  3
Shaded with edges
350
3D
  3
Shades of Gray
350
3A
  3
Sketchy
350
3B
  3
Thicken
350
36
  3
Wireframe
350
30
  3
X-Ray
350
3C
  0
XRECORD
  5
668
102
{ACAD_REACTORS
330
C
102
}
330
C
100
AcDbXrecord
280
     1
 90
        1
330
64
  0
DICTIONARY
  5
4DD
102
{ACAD_REACTORS
330
C
102
}
330
C
100
AcDbDictionary
281
     1
  3
CANNOSCALE
350
4E0
  3
CMLEADERSTYLE
350
4DF
  3
CTABLESTYLE
350
4DE
  3
DIMASSOC
350
4E3
  3
INDEXCTL
350
4E2
  3
SORTENTS
350
4E1
  3
XCLIPFRAME
350
5CD
  0
XRECORD
  5
669
102
{ACAD_REACTORS
330
C
102
}
330
C
100
AcDbXrecord
280
     1
  1
DWGPROPS COOKIE
  2

  3

  4

  6

  7

  8
imamura
  9

300
=
301
=
302
=
303
=
304
=
305
=
306
=
307
=
308
=
309
=
 40
0.0175887037037037
 41
2456071.638008276
 42
2456850.658559398
  1

 90
        0
  0
DICTIONARY
  5
2E2
102
{ACAD_REACTORS
330
2E1
102
}
330
2E1
100
AcDbDictionary
281
     1
  0
XRECORD
  5
4DA
102
{ACAD_REACTORS
330
4D9
102
}
330
4D9
100
AcDbXrecord
280
     1
290
     1
  0
SORTENTSTABLE
  5
613
102
{ACAD_REACTORS
330
612
102
}
330
612
100
AcDbSortentsTable
330
6B
331
41A
  5
638
331
229
  5
443
331
218
  5
432
331
437
  5
655
331
426
  5
644
331
197
  5
1EE
331
629
  5
19D
331
1A8
  5
1FF
331
13D
  5
13D
331
12C
  5
12C
331
11B
  5
11B
331
1B9
  5
20E
331
63A
  5
1AE
331
64B
  5
1C3
331
207
  5
423
331
1F6
  5
237
331
1E5
  5
22A
331
1D4
  5
225
331
10B
  5
10B
331
FA
  5
FA
331
E9
  5
E9
331
41B
  5
639
331
22A
  5
444
331
219
  5
433
331
438
  5
656
331
427
  5
645
331
198
  5
1EF
331
62A
  5
19E
331
1A9
  5
200
331
13E
  5
13E
331
12D
  5
12D
331
11C
  5
11C
331
1BA
  5
20F
331
63B
  5
1AF
331
64C
  5
1C8
331
1F7
  5
238
331
1E6
  5
22B
331
10C
  5
10C
331
FB
  5
FB
331
EA
  5
EA
331
1F8
  5
239
331
41C
  5
63A
331
22B
  5
445
331
21A
  5
434
331
209
  5
424
331
658
  5
1D4
331
439
  5
657
331
428
  5
646
331
199
  5
1F0
331
1AA
  5
201
331
62B
  5
19F
331
61A
  5
18E
331
13F
  5
13F
331
12E
  5
12E
331
11D
  5
11D
331
1BB
  5
210
331
63C
  5
1B0
331
64D
  5
1C9
331
1E7
  5
22C
331
1D6
  5
226
331
10D
  5
10D
331
FC
  5
FC
331
EB
  5
EB
331
659
  5
633
331
41D
  5
63B
331
22C
  5
446
331
21B
  5
435
331
20A
  5
425
331
1F9
  5
23A
331
1E8
  5
22D
331
43A
  5
658
331
429
  5
647
331
19A
  5
1F1
331
1AB
  5
202
331
62C
  5
1A0
331
61B
  5
18F
331
140
  5
140
331
12F
  5
12F
331
11E
  5
11E
331
1BC
  5
211
331
63D
  5
1B1
331
64E
  5
1CA
331
10E
  5
10E
331
FD
  5
FD
331
EC
  5
EC
331
65A
  5
630
331
41E
  5
63C
331
22D
  5
447
331
21C
  5
436
331
20B
  5
426
331
1FA
  5
416
331
1D8
  5
227
331
43B
  5
659
331
42A
  5
648
331
19B
  5
1F2
331
1AC
  5
203
331
62D
  5
1A1
331
61C
  5
190
331
141
  5
141
331
130
  5
130
331
11F
  5
11F
331
1BD
  5
212
331
63E
  5
1B4
331
64F
  5
1CB
331
10F
  5
10F
331
FE
  5
FE
331
ED
  5
ED
331
650
  5
1CC
331
65B
  5
631
331
41F
  5
63D
331
22E
  5
448
331
21D
  5
437
331
20C
  5
427
331
1FB
  5
417
331
1C8
  5
219
331
42B
  5
649
331
43C
  5
65A
331
60C
  5
62A
331
19C
  5
1F3
331
1AD
  5
204
331
62E
  5
1A2
331
61D
  5
191
331
142
  5
142
331
131
  5
131
331
120
  5
120
331
110
  5
110
331
1BE
  5
213
331
63F
  5
1B6
331
FF
  5
FF
331
EE
  5
EE
331
640
  5
1B8
331
651
  5
1CD
331
65C
  5
632
331
22F
  5
60C
331
21E
  5
438
331
1FC
  5
418
331
1C9
  5
21A
331
42C
  5
64A
331
43D
  5
65B
331
60D
  5
62B
331
19D
  5
1F4
331
1AE
  5
205
331
62F
  5
1A3
331
61E
  5
192
331
143
  5
143
331
132
  5
132
331
121
  5
121
331
111
  5
111
331
100
  5
100
331
1BF
  5
214
331
EF
  5
EF
331
630
  5
1A4
331
1C0
  5
215
331
641
  5
1B9
331
652
  5
1CE
331
65D
  5
62D
331
230
  5
60D
331
21F
  5
439
331
20E
  5
428
331
1FD
  5
419
331
1CA
  5
21B
331
42D
  5
64B
331
43E
  5
65C
331
60E
  5
62C
331
19E
  5
1F5
331
1AF
  5
206
331
61F
  5
193
331
144
  5
144
331
133
  5
133
331
122
  5
122
331
112
  5
112
331
101
  5
101
331
F0
  5
F0
331
1B0
  5
207
331
620
  5
194
331
631
  5
1A5
331
1C1
  5
216
331
642
  5
1BA
331
653
  5
1CF
331
65E
  5
62E
331
231
  5
60E
331
220
  5
43A
331
20F
  5
429
331
1FE
  5
41A
331
1ED
  5
22E
331
1CB
  5
21C
331
42E
  5
64C
331
43F
  5
65D
331
18E
  5
1D6
331
19F
  5
1F6
331
145
  5
145
331
134
  5
134
331
123
  5
123
331
113
  5
113
331
102
  5
102
331
F1
  5
F1
331
440
  5
65E
331
1A0
  5
1F7
331
621
  5
195
331
1B1
  5
209
331
1C2
  5
217
331
632
  5
1A6
331
643
  5
1BB
331
654
  5
1D0
331
65F
  5
62F
331
232
  5
60F
331
221
  5
43B
331
210
  5
42A
331
1FF
  5
41B
331
1EE
  5
22F
331
1CC
  5
21D
331
42F
  5
64D
331
18F
  5
1D8
331
146
  5
146
331
135
  5
135
331
124
  5
124
331
114
  5
114
331
103
  5
103
331
E1
  5
E1
331
448
  5
666
331
430
  5
64E
331
441
  5
65F
331
190
  5
1DE
331
622
  5
196
331
1A1
  5
1F8
331
1C3
  5
218
331
633
  5
1A7
331
644
  5
1BC
331
655
  5
1D1
331
660
  5
629
331
233
  5
610
331
222
  5
43C
331
211
  5
42B
331
200
  5
41C
331
1EF
  5
230
331
1DE
  5
228
331
1CD
  5
21E
331
147
  5
147
331
136
  5
136
331
125
  5
125
331
115
  5
115
331
104
  5
104
331
E2
  5
E2
331
420
  5
63E
331
431
  5
64F
331
442
  5
660
331
191
  5
1E4
331
623
  5
197
331
1A2
  5
1F9
331
148
  5
148
331
634
  5
1A8
331
645
  5
1BD
331
656
  5
1D2
331
661
  5
626
331
234
  5
611
331
223
  5
43D
331
212
  5
42C
331
201
  5
41D
331
1F0
  5
231
331
1CE
  5
21F
331
137
  5
137
331
126
  5
126
331
116
  5
116
331
105
  5
105
331
F4
  5
F4
331
E3
  5
E3
331
421
  5
63F
331
432
  5
650
331
443
  5
661
331
192
  5
1E5
331
624
  5
198
331
1A3
  5
1FA
331
149
  5
149
331
138
  5
138
331
1B4
  5
20A
331
635
  5
1A9
331
646
  5
1BE
331
657
  5
1D3
331
662
  5
627
331
416
  5
634
331
235
  5
614
331
224
  5
43E
331
213
  5
42D
331
202
  5
41E
331
1F1
  5
232
331
1CF
  5
220
331
127
  5
127
331
117
  5
117
331
106
  5
106
331
F5
  5
F5
331
E4
  5
E4
331
422
  5
640
331
433
  5
651
331
444
  5
662
331
614
  5
61A
331
193
  5
1E6
331
625
  5
199
331
1A4
  5
1FB
331
14A
  5
14A
331
139
  5
139
331
128
  5
128
331
636
  5
1AA
331
647
  5
1BF
331
663
  5
628
331
417
  5
635
331
236
  5
615
331
225
  5
43F
331
214
  5
42E
331
203
  5
41F
331
1F2
  5
233
331
1D0
  5
221
331
107
  5
107
331
F6
  5
F6
331
E5
  5
E5
331
238
  5
617
331
423
  5
641
331
434
  5
652
331
445
  5
663
331
615
  5
61B
331
194
  5
1E7
331
626
  5
19A
331
1A5
  5
1FC
331
14B
  5
14B
331
13A
  5
13A
331
129
  5
129
331
118
  5
118
331
1B6
  5
20B
331
637
  5
1AB
331
648
  5
1C0
331
664
  5
620
331
237
  5
616
331
226
  5
440
331
215
  5
42F
331
204
  5
420
331
1F3
  5
234
331
1D1
  5
222
331
108
  5
108
331
F7
  5
F7
331
E6
  5
E6
331
418
  5
636
331
239
  5
618
331
435
  5
653
331
424
  5
642
331
446
  5
664
331
616
  5
61C
331
627
  5
19B
331
1A6
  5
1FD
331
195
  5
1E8
331
13B
  5
13B
331
12A
  5
12A
331
119
  5
119
331
638
  5
1AC
331
649
  5
1C1
331
665
  5
621
331
227
  5
441
331
216
  5
430
331
205
  5
421
331
1F4
  5
235
331
1D2
  5
223
331
109
  5
109
331
F8
  5
F8
331
E7
  5
E7
331
419
  5
637
331
228
  5
442
331
23A
  5
619
331
436
  5
654
331
425
  5
643
331
447
  5
665
331
196
  5
1ED
331
628
  5
19C
331
1A7
  5
1FE
331
13C
  5
13C
331
12B
  5
12B
331
11A
  5
11A
331
1B8
  5
20C
331
639
  5
1AD
331
64A
  5
1C2
331
666
  5
622
331
217
  5
431
331
206
  5
422
331
1F5
  5
236
331
1E4
  5
229
331
1D3
  5
224
331
10A
  5
10A
331
F9
  5
F9
331
E8
  5
E8
  0
XRECORD
  5
66C
102
{ACAD_REACTORS
330
66A
102
}
330
66A
100
AcDbXrecord
280
     1
 70
     2
  0
XRECORD
  5
66B
102
{ACAD_REACTORS
330
66A
102
}
330
66A
100
AcDbXrecord
280
     1
 40
1.25
  0
XRECORD
  5
66D
102
{ACAD_REACTORS
330
66A
102
}
330
66A
100
AcDbXrecord
280
     1
 40
1.570796326794896
  0
LAYOUT
  5
6E
102
{ACAD_XDICTIONARY
360
6A1
102
}
102
{ACAD_REACTORS
330
61
102
}
330
61
100
AcDbPlotSettings
  1

  2
FX DP 205
  4

  6

 40
0.0
 41
0.0
 42
0.0
 43
0.0
 44
0.0
 45
0.0
 46
0.0
 47
0.0
 48
0.0
 49
0.0
140
0.0
141
0.0
142
1.0
143
1.0
 70
  1712
 72
     0
 73
     0
 74
     0
  7

 75
     0
147
1.0
148
0.0
149
0.0
100
AcDbLayout
  1
Model
 70
     1
 71
     0
 10
0.0
 20
0.0
 11
12.0
 21
9.0
 12
0.0
 22
0.0
 32
0.0
 14
0.0
 24
0.0
 34
0.0
 15
0.0
 25
0.0
 35
0.0
146
0.0
 13
0.0
 23
0.0
 33
0.0
 16
1.0
 26
0.0
 36
0.0
 17
0.0
 27
1.0
 37
0.0
 76
     0
330
6B
331
8B
  0
LAYOUT
  5
6A
102
{ACAD_XDICTIONARY
360
69F
102
}
102
{ACAD_REACTORS
330
61
102
}
330
61
100
AcDbPlotSettings
  1

  2
FX DP 205
  4

  6

 40
0.0
 41
0.0
 42
0.0
 43
0.0
 44
0.0
 45
0.0
 46
0.0
 47
0.0
 48
0.0
 49
0.0
140
0.0
141
0.0
142
1.0
143
1.0
 70
   688
 72
     0
 73
     0
 74
     5
  7

 75
    16
147
1.0
148
0.0
149
0.0
100
AcDbLayout
  1
レイアウト1
 70
     1
 71
     1
 10
0.0
 20
0.0
 11
12.0
 21
9.0
 12
0.0
 22
0.0
 32
0.0
 14
1.000000000000000E+20
 24
1.000000000000000E+20
 34
1.000000000000000E+20
 15
-1.000000000000000E+20
 25
-1.000000000000000E+20
 35
-1.000000000000000E+20
146
0.0
 13
0.0
 23
0.0
 33
0.0
 16
1.0
 26
0.0
 36
0.0
 17
0.0
 27
1.0
 37
0.0
 76
     0
330
67
  0
MATERIAL
  5
19
102
{ACAD_XDICTIONARY
360
1A
102
}
102
{ACAD_REACTORS
330
10
102
}
330
10
100
AcDbMaterial
  1
ByBlock
 72
     0
 43
0.0208333333333333
 43
0.0
 43
0.0
 43
0.0
 43
0.0
 43
0.0208333333333333
 43
0.0
 43
0.0
 43
0.0
 43
0.0
 43
1.0
 43
0.0
 43
0.0
 43
0.0
 43
0.0
 43
1.0
 77
     0
 47
0.0208333333333333
 47
0.0
 47
0.0
 47
0.0
 47
0.0
 47
0.0208333333333333
 47
0.0
 47
0.0
 47
0.0
 47
0.0
 47
1.0
 47
0.0
 47
0.0
 47
0.0
 47
0.0
 47
1.0
171
     0
 49
0.0208333333333333
 49
0.0
 49
0.0
 49
0.0
 49
0.0
 49
0.0208333333333333
 49
0.0
 49
0.0
 49
0.0
 49
0.0
 49
1.0
 49
0.0
 49
0.0
 49
0.0
 49
0.0
 49
1.0
175
     0
142
0.0208333333333333
142
0.0
142
0.0
142
0.0
142
0.0
142
0.0208333333333333
142
0.0
142
0.0
142
0.0
142
0.0
142
1.0
142
0.0
142
0.0
142
0.0
142
0.0
142
1.0
179
     0
144
0.0208333333333333
144
0.0
144
0.0
144
0.0
144
0.0
144
0.0208333333333333
144
0.0
144
0.0
144
0.0
144
0.0
144
1.0
144
0.0
144
0.0
144
0.0
144
0.0
144
1.0
147
0.0208333333333333
147
0.0
147
0.0
147
0.0
147
0.0
147
0.0208333333333333
147
0.0
147
0.0
147
0.0
147
0.0
147
1.0
147
0.0
147
0.0
147
0.0
147
0.0
147
1.0
  0
MATERIAL
  5
11
102
{ACAD_XDICTIONARY
360
12
102
}
102
{ACAD_REACTORS
330
10
102
}
330
10
100
AcDbMaterial
  1
ByLayer
 72
     0
 43
0.0208333333333333
 43
0.0
 43
0.0
 43
0.0
 43
0.0
 43
0.0208333333333333
 43
0.0
 43
0.0
 43
0.0
 43
0.0
 43
1.0
 43
0.0
 43
0.0
 43
0.0
 43
0.0
 43
1.0
 77
     0
 47
0.0208333333333333
 47
0.0
 47
0.0
 47
0.0
 47
0.0
 47
0.0208333333333333
 47
0.0
 47
0.0
 47
0.0
 47
0.0
 47
1.0
 47
0.0
 47
0.0
 47
0.0
 47
0.0
 47
1.0
171
     0
 49
0.0208333333333333
 49
0.0
 49
0.0
 49
0.0
 49
0.0
 49
0.0208333333333333
 49
0.0
 49
0.0
 49
0.0
 49
0.0
 49
1.0
 49
0.0
 49
0.0
 49
0.0
 49
0.0
 49
1.0
175
     0
142
0.0208333333333333
142
0.0
142
0.0
142
0.0
142
0.0
142
0.0208333333333333
142
0.0
142
0.0
142
0.0
142
0.0
142
1.0
142
0.0
142
0.0
142
0.0
142
0.0
142
1.0
179
     0
144
0.0208333333333333
144
0.0
144
0.0
144
0.0
144
0.0
144
0.0208333333333333
144
0.0
144
0.0
144
0.0
144
0.0
144
1.0
144
0.0
144
0.0
144
0.0
144
0.0
144
1.0
147
0.0208333333333333
147
0.0
147
0.0
147
0.0
147
0.0
147
0.0208333333333333
147
0.0
147
0.0
147
0.0
147
0.0
147
1.0
147
0.0
147
0.0
147
0.0
147
0.0
147
1.0
  0
MATERIAL
  5
21
102
{ACAD_XDICTIONARY
360
22
102
}
102
{ACAD_REACTORS
330
10
102
}
330
10
100
AcDbMaterial
  1
Global
 72
     0
 43
0.0208333333333333
 43
0.0
 43
0.0
 43
0.0
 43
0.0
 43
0.0208333333333333
 43
0.0
 43
0.0
 43
0.0
 43
0.0
 43
1.0
 43
0.0
 43
0.0
 43
0.0
 43
0.0
 43
1.0
 77
     0
 47
0.0208333333333333
 47
0.0
 47
0.0
 47
0.0
 47
0.0
 47
0.0208333333333333
 47
0.0
 47
0.0
 47
0.0
 47
0.0
 47
1.0
 47
0.0
 47
0.0
 47
0.0
 47
0.0
 47
1.0
171
     0
 49
0.0208333333333333
 49
0.0
 49
0.0
 49
0.0
 49
0.0
 49
0.0208333333333333
 49
0.0
 49
0.0
 49
0.0
 49
0.0
 49
1.0
 49
0.0
 49
0.0
 49
0.0
 49
0.0
 49
1.0
175
     0
142
0.0208333333333333
142
0.0
142
0.0
142
0.0
142
0.0
142
0.0208333333333333
142
0.0
142
0.0
142
0.0
142
0.0
142
1.0
142
0.0
142
0.0
142
0.0
142
0.0
142
1.0
179
     0
144
0.0208333333333333
144
0.0
144
0.0
144
0.0
144
0.0
144
0.0208333333333333
144
0.0
144
0.0
144
0.0
144
0.0
144
1.0
144
0.0
144
0.0
144
0.0
144
0.0
144
1.0
147
0.0208333333333333
147
0.0
147
0.0
147
0.0
147
0.0
147
0.0208333333333333
147
0.0
147
0.0
147
0.0
147
0.0
147
1.0
147
0.0
147
0.0
147
0.0
147
0.0
147
1.0
  0
MLEADERSTYLE
  5
66
102
{ACAD_REACTORS
330
65
102
}
330
65
100
AcDbMLeaderStyle
170
     2
171
     1
172
     0
 90
        2
 40
0.0
 41
0.0
173
     1
 91
-1056964608
340
5A
 92
       -2
290
     1
 42
0.09
291
     1
 43
0.36
  3
Standard
 44
0.18
300

342
55
174
     1
178
     6
175
     1
176
     0
 93
-1056964608
 45
0.18
292
     0
297
     0
 46
0.18
 94
-1056964608
 47
1.0
 49
1.0
140
1.0
293
     1
141
0.0
294
     1
177
     0
142
1.0
295
     0
296
     0
143
0.125
1001
ACAD_MLEADERVER
1070
     2
  0
MLINESTYLE
  5
5F
102
{ACAD_REACTORS
330
5E
102
}
330
5E
100
AcDbMlineStyle
  2
STANDARD
 70
     0
  3

 62
   256
 51
90.0
 52
90.0
 71
     2
 49
0.5
 62
   256
  6
BYLAYER
 49
-0.5
 62
   256
  6
BYLAYER
  0
ACDBPLACEHOLDER
  5
F
102
{ACAD_REACTORS
330
E
102
}
330
E
  0
SCALE
  5
43
102
{ACAD_REACTORS
330
42
102
}
330
42
100
AcDbScale
 70
     0
300
1:1
140
1.0
141
1.0
290
     1
  0
SCALE
  5
44
102
{ACAD_REACTORS
330
42
102
}
330
42
100
AcDbScale
 70
     0
300
1/128" = 1'-0"
140
0.0078125
141
12.0
290
     0
  0
SCALE
  5
45
102
{ACAD_REACTORS
330
42
102
}
330
42
100
AcDbScale
 70
     0
300
1/64" = 1'-0"
140
0.015625
141
12.0
290
     0
  0
SCALE
  5
46
102
{ACAD_REACTORS
330
42
102
}
330
42
100
AcDbScale
 70
     0
300
1/32" = 1'-0"
140
0.03125
141
12.0
290
     0
  0
SCALE
  5
47
102
{ACAD_REACTORS
330
42
102
}
330
42
100
AcDbScale
 70
     0
300
1/16" = 1'-0"
140
0.0625
141
12.0
290
     0
  0
SCALE
  5
48
102
{ACAD_REACTORS
330
42
102
}
330
42
100
AcDbScale
 70
     0
300
3/32" = 1'-0"
140
0.09375
141
12.0
290
     0
  0
SCALE
  5
49
102
{ACAD_REACTORS
330
42
102
}
330
42
100
AcDbScale
 70
     0
300
1/8" = 1'-0"
140
0.125
141
12.0
290
     0
  0
SCALE
  5
4A
102
{ACAD_REACTORS
330
42
102
}
330
42
100
AcDbScale
 70
     0
300
3/16" = 1'-0"
140
0.1875
141
12.0
290
     0
  0
SCALE
  5
4B
102
{ACAD_REACTORS
330
42
102
}
330
42
100
AcDbScale
 70
     0
300
1/4" = 1'-0"
140
0.25
141
12.0
290
     0
  0
SCALE
  5
4C
102
{ACAD_REACTORS
330
42
102
}
330
42
100
AcDbScale
 70
     0
300
3/8" = 1'-0"
140
0.375
141
12.0
290
     0
  0
SCALE
  5
4D
102
{ACAD_REACTORS
330
42
102
}
330
42
100
AcDbScale
 70
     0
300
1/2" = 1'-0"
140
0.5
141
12.0
290
     0
  0
SCALE
  5
4E
102
{ACAD_REACTORS
330
42
102
}
330
42
100
AcDbScale
 70
     0
300
3/4" = 1'-0"
140
0.75
141
12.0
290
     0
  0
SCALE
  5
4F
102
{ACAD_REACTORS
330
42
102
}
330
42
100
AcDbScale
 70
     0
300
1" = 1'-0"
140
1.0
141
12.0
290
     0
  0
SCALE
  5
50
102
{ACAD_REACTORS
330
42
102
}
330
42
100
AcDbScale
 70
     0
300
1-1/2" = 1'-0"
140
1.5
141
12.0
290
     0
  0
SCALE
  5
51
102
{ACAD_REACTORS
330
42
102
}
330
42
100
AcDbScale
 70
     0
300
3" = 1'-0"
140
3.0
141
12.0
290
     0
  0
SCALE
  5
52
102
{ACAD_REACTORS
330
42
102
}
330
42
100
AcDbScale
 70
     0
300
6" = 1'-0"
140
6.0
141
12.0
290
     0
  0
SCALE
  5
53
102
{ACAD_REACTORS
330
42
102
}
330
42
100
AcDbScale
 70
     0
300
1'-0" = 1'-0"
140
12.0
141
12.0
290
     0
  0
TABLESTYLE
  5
64
102
{ACAD_XDICTIONARY
360
4E5
102
}
102
{ACAD_REACTORS
330
63
102
}
330
63
100
AcDbTableStyle
  3
Standard
 70
     0
 71
     0
 40
0.06
 41
0.06
280
     0
281
     0
  7
STANDARD
140
0.18
170
     2
 62
     0
 63
     7
283
     0
274
    -2
284
     1
 64
     0
275
    -2
285
     1
 65
     0
276
    -2
286
     1
 66
     0
277
    -2
287
     1
 67
     0
278
    -2
288
     1
 68
     0
279
    -2
289
     1
 69
     0
  7
STANDARD
140
0.25
170
     5
 62
     0
 63
     7
283
     0
274
    -2
284
     1
 64
     0
275
    -2
285
     1
 65
     0
276
    -2
286
     1
 66
     0
277
    -2
287
     1
 67
     0
278
    -2
288
     1
 68
     0
279
    -2
289
     1
 69
     0
  7
STANDARD
140
0.18
170
     5
 62
     0
 63
     7
283
     0
274
    -2
284
     1
 64
     0
275
    -2
285
     1
 65
     0
276
    -2
286
     1
 66
     0
277
    -2
287
     1
 67
     0
278
    -2
288
     1
 68
     0
279
    -2
289
     1
 69
     0
  0
VISUALSTYLE
  5
2F
102
{ACAD_XDICTIONARY
360
678
102
}
102
{ACAD_REACTORS
330
29
102
}
330
29
100
AcDbVisualStyle
  2

 70
     4
 71
     0
 72
     2
 73
     0
 90
        0
 40
-0.6
 41
-30.0
 62
     5
 63
     7
 74
     1
 91
        4
 64
     7
 65
   257
 75
     1
175
     1
 42
1.0
 92
        0
 66
   257
 43
1.0
 76
     1
 77
     6
 78
     2
 67
     7
 79
     5
170
     0
171
     0
290
     0
174
     0
 93
        1
 44
0.0
173
     0
291
     0
 45
0.0
1001
ACAD
1000
AcDbSavedByObjectVersion
1070
     0
  0
VISUALSTYLE
  5
2E0
102
{ACAD_XDICTIONARY
360
6A3
102
}
102
{ACAD_REACTORS
330
29
102
}
330
29
100
AcDbVisualStyle
  2

 70
     5
 71
     0
 72
     2
 73
     1
 90
        0
 40
-0.6
 41
-30.0
 62
     5
 63
     7
 74
     1
 91
        4
 64
     7
 65
   257
 75
     1
175
     1
 42
1.0
 92
        0
 66
   257
 43
1.0
 76
     1
 77
     6
 78
     2
 67
     7
 79
     5
170
     0
171
     0
290
     0
174
     0
 93
        1
 44
0.0
173
     0
291
     0
 45
0.0
1001
ACAD
1000
AcDbSavedByObjectVersion
1070
     0
  0
VISUALSTYLE
  5
2E
102
{ACAD_XDICTIONARY
360
676
102
}
102
{ACAD_REACTORS
330
29
102
}
330
29
100
AcDbVisualStyle
  2

 70
     7
 71
     1
 72
     0
 73
     1
 90
        0
 40
-0.6
 41
-30.0
 62
     5
 63
     7
 74
     0
 91
        4
 64
     7
 65
   257
 75
     1
175
     1
 42
1.0
 92
        8
 66
     7
 43
1.0
 76
     1
 77
     6
 78
     2
 67
     7
 79
     5
170
     0
171
     0
290
     0
174
     0
 93
        1
 44
0.0
173
     0
291
     1
 45
0.0
1001
ACAD
1000
AcDbSavedByObjectVersion
1070
     0
  0
VISUALSTYLE
  5
35
102
{ACAD_XDICTIONARY
360
684
102
}
102
{ACAD_REACTORS
330
29
102
}
330
29
100
AcDbVisualStyle
  2

 70
    12
 71
     2
 72
     2
 73
     0
 90
        0
 40
-0.6
 41
-30.0
 62
     5
 63
     7
 74
     1
 91
        4
 64
     7
 65
   257
 75
     1
175
     1
 42
1.0
 92
        8
 66
     7
 43
1.0
 76
     1
 77
     6
 78
     2
 67
     7
 79
     5
170
     0
171
     0
290
     0
174
     0
 93
        1
 44
50.0
173
     0
291
     1
 45
0.0
1001
ACAD
1000
AcDbSavedByObjectVersion
1070
     0
  0
VISUALSTYLE
  5
39
102
{ACAD_XDICTIONARY
360
68C
102
}
102
{ACAD_REACTORS
330
29
102
}
330
29
100
AcDbVisualStyle
  2

 70
    16
 71
     2
 72
     2
 73
     3
 90
        0
 40
-0.6
 41
-30.0
 62
     5
 63
     8
 74
     1
 91
        4
 64
     7
 65
   257
 75
     1
175
     1
 42
1.0
 92
        8
 66
     8
 43
1.0
 76
     1
 77
     6
 78
     2
 67
     7
 79
     5
170
     0
171
     0
290
     0
174
     0
 93
        1
 44
0.0
173
     0
291
     1
 45
0.0
1001
ACAD
1000
AcDbSavedByObjectVersion
1070
     0
  0
VISUALSTYLE
  5
32
102
{ACAD_XDICTIONARY
360
67E
102
}
102
{ACAD_REACTORS
330
29
102
}
330
29
100
AcDbVisualStyle
  2

 70
     9
 71
     3
 72
     2
 73
     0
 90
        0
 40
-0.6
 41
-30.0
 62
     5
 63
     7
 74
     2
 91
        2
 64
     7
 65
   257
 75
     1
175
     1
 42
179.0
 92
        8
 66
     7
 43
1.0
 76
     1
 77
     6
 78
     2
 67
     7
 79
     3
170
     0
171
     0
290
     0
174
     0
 93
        1
 44
0.0
173
     0
291
     0
 45
0.0
1001
ACAD
1000
AcDbSavedByObjectVersion
1070
     0
  0
VISUALSTYLE
  5
34
102
{ACAD_XDICTIONARY
360
682
102
}
102
{ACAD_REACTORS
330
29
102
}
330
29
100
AcDbVisualStyle
  2

 70
    11
 71
     2
 72
     2
 73
     0
 90
        0
 40
-0.6
 41
-30.0
 62
     5
 63
     7
 74
     1
 91
        4
 64
     7
 65
   257
 75
     1
175
     1
 42
1.0
 92
        8
 66
     7
 43
1.0
 76
     1
 77
     6
 78
     2
 67
     7
 79
     5
170
     0
171
     0
290
     0
174
     0
 93
        1
 44
-50.0
173
     0
291
     1
 45
0.0
1001
ACAD
1000
AcDbSavedByObjectVersion
1070
     0
  0
VISUALSTYLE
  5
41
102
{ACAD_XDICTIONARY
360
69C
102
}
102
{ACAD_REACTORS
330
29
102
}
330
29
100
AcDbVisualStyle
  2

 70
    22
 71
     2
 72
     2
 73
     0
 90
        0
 40
-0.6
 41
-30.0
 62
     5
 63
     7
 74
     1
 91
        4
 64
     7
 65
   257
 75
     1
175
     1
 42
1.0
 92
        8
 66
     7
 43
1.0
 76
     1
 77
     6
 78
     2
 67
     7
 79
     5
170
     0
171
     0
290
     0
174
     0
 93
        1
 44
0.0
173
     0
291
     1
 45
0.0
1001
ACAD
1000
AcDbSavedByObjectVersion
1070
     0
  0
VISUALSTYLE
  5
38
102
{ACAD_XDICTIONARY
360
68A
102
}
102
{ACAD_REACTORS
330
29
102
}
330
29
100
AcDbVisualStyle
  2

 70
    15
 71
     2
 72
     2
 73
     0
 90
        0
 40
-0.6
 41
-30.0
 62
     5
 63
     7
 74
     1
 91
        4
 64
     7
 65
   257
 75
     1
175
     1
 42
1.0
 92
        8
 66
     7
 43
1.0
 76
     1
 77
     6
 78
     2
 67
     7
 79
     5
170
     0
171
     0
290
     0
174
     0
 93
        1
 44
0.0
173
     0
291
     1
 45
0.0
1001
ACAD
1000
AcDbSavedByObjectVersion
1070
     0
  0
VISUALSTYLE
  5
2A
102
{ACAD_XDICTIONARY
360
66E
102
}
102
{ACAD_REACTORS
330
29
102
}
330
29
100
AcDbVisualStyle
  2

 70
     0
 71
     2
 72
     1
 73
     1
 90
        2
 40
-0.6
 41
30.0
 62
     5
 63
     7
 74
     0
 91
        0
 64
     7
 65
   257
 75
     1
175
     1
 42
1.0
 92
        8
 66
     7
 43
1.0
 76
     1
 77
     6
 78
     2
 67
     7
 79
     5
170
     0
171
     0
290
     0
174
     0
 93
       13
 44
0.0
173
     0
291
     1
 45
0.0
1001
ACAD
1000
AcDbSavedByObjectVersion
1070
     0
  0
VISUALSTYLE
  5
2B
102
{ACAD_XDICTIONARY
360
670
102
}
102
{ACAD_REACTORS
330
29
102
}
330
29
100
AcDbVisualStyle
  2

 70
     1
 71
     2
 72
     1
 73
     1
 90
        2
 40
-0.6
 41
30.0
 62
     5
 63
     7
 74
     1
 91
        0
 64
     7
 65
   257
 75
     1
175
     1
 42
1.0
 92
        0
 66
   257
 43
1.0
 76
     1
 77
     6
 78
     2
 67
     7
 79
     5
170
     0
171
     0
290
     0
174
     0
 93
       13
 44
0.0
173
     0
291
     1
 45
0.0
1001
ACAD
1000
AcDbSavedByObjectVersion
1070
     0
  0
VISUALSTYLE
  5
2C
102
{ACAD_XDICTIONARY
360
672
102
}
102
{ACAD_REACTORS
330
29
102
}
330
29
100
AcDbVisualStyle
  2

 70
     2
 71
     2
 72
     2
 73
     1
 90
        2
 40
-0.6
 41
30.0
 62
     5
 63
     7
 74
     0
 91
        0
 64
     7
 65
   257
 75
     1
175
     1
 42
1.0
 92
        0
 66
     7
 43
1.0
 76
     1
 77
     6
 78
     2
 67
     7
 79
     5
170
     0
171
     0
290
     0
174
     0
 93
       13
 44
0.0
173
     0
291
     1
 45
0.0
1001
ACAD
1000
AcDbSavedByObjectVersion
1070
     0
  0
VISUALSTYLE
  5
2D
102
{ACAD_XDICTIONARY
360
674
102
}
102
{ACAD_REACTORS
330
29
102
}
330
29
100
AcDbVisualStyle
  2

 70
     3
 71
     2
 72
     2
 73
     1
 90
        2
 40
-0.6
 41
30.0
 62
     5
 63
     7
 74
     1
 91
        0
 64
     7
 65
   257
 75
     1
175
     1
 42
1.0
 92
        0
 66
   257
 43
1.0
 76
     1
 77
     6
 78
     2
 67
     7
 79
     5
170
     0
171
     0
290
     0
174
     0
 93
       13
 44
0.0
173
     0
291
     1
 45
0.0
1001
ACAD
1000
AcDbSavedByObjectVersion
1070
     0
  0
VISUALSTYLE
  5
31
102
{ACAD_XDICTIONARY
360
67C
102
}
102
{ACAD_REACTORS
330
29
102
}
330
29
100
AcDbVisualStyle
  2

 70
     6
 71
     1
 72
     2
 73
     2
 90
        0
 40
-0.6
 41
-30.0
 62
     5
 63
     7
 74
     2
 91
        2
 64
     7
 65
   257
 75
     2
175
     1
 42
40.0
 92
        0
 66
   257
 43
1.0
 76
     1
 77
     6
 78
     2
 67
     7
 79
     3
170
     0
171
     0
290
     0
174
     0
 93
        1
 44
0.0
173
     0
291
     0
 45
0.0
1001
ACAD
1000
AcDbSavedByObjectVersion
1070
     0
  0
VISUALSTYLE
  5
3F
102
{ACAD_XDICTIONARY
360
698
102
}
102
{ACAD_REACTORS
330
29
102
}
330
29
100
AcDbVisualStyle
  2

 70
    20
 71
     2
 72
     2
 73
     0
 90
        0
 40
-0.6
 41
-30.0
 62
     5
 63
     7
 74
     1
 91
        4
 64
     7
 65
   257
 75
     1
175
     1
 42
1.0
 92
       10
 66
     7
 43
1.0
 76
     1
 77
     6
 78
     2
 67
     7
 79
     5
170
     0
171
     0
290
     0
174
     0
 93
        1
 44
0.0
173
     0
291
     1
 45
0.0
1001
ACAD
1000
AcDbSavedByObjectVersion
1070
     0
  0
VISUALSTYLE
  5
37
102
{ACAD_XDICTIONARY
360
688
102
}
102
{ACAD_REACTORS
330
29
102
}
330
29
100
AcDbVisualStyle
  2

 70
    14
 71
     2
 72
     2
 73
     0
 90
        0
 40
-0.6
 41
-30.0
 62
     5
 63
     7
 74
     1
 91
        4
 64
     7
 65
   257
 75
     7
175
     7
 42
1.0
 92
        8
 66
     7
 43
1.0
 76
     1
 77
     6
 78
     2
 67
     7
 79
     5
170
     0
171
     0
290
     0
174
     0
 93
        1
 44
0.0
173
     0
291
     1
 45
0.0
1001
ACAD
1000
AcDbSavedByObjectVersion
1070
     0
  0
VISUALSTYLE
  5
40
102
{ACAD_XDICTIONARY
360
69A
102
}
102
{ACAD_REACTORS
330
29
102
}
330
29
100
AcDbVisualStyle
  2

 70
    21
 71
     2
 72
     2
 73
     0
 90
        0
 40
-0.6
 41
-30.0
 62
     5
 63
     7
 74
     1
 91
        4
 64
     7
 65
   257
 75
     1
175
     1
 42
1.0
 92
        9
 66
     7
 43
1.0
 76
     1
 77
     6
 78
     2
 67
     7
 79
     5
170
     0
171
     0
290
     0
174
     0
 93
        1
 44
0.0
173
     0
291
     1
 45
0.0
1001
ACAD
1000
AcDbSavedByObjectVersion
1070
     0
  0
VISUALSTYLE
  5
33
102
{ACAD_XDICTIONARY
360
680
102
}
102
{ACAD_REACTORS
330
29
102
}
330
29
100
AcDbVisualStyle
  2

 70
     8
 71
     2
 72
     3
 73
     0
 90
        2
 40
-0.6
 41
30.0
 62
     5
 63
     7
 74
     0
 91
        0
 64
     7
 65
   257
 75
     1
175
     1
 42
1.0
 92
        8
 66
   257
 43
1.0
 76
     1
 77
     6
 78
     2
 67
     7
 79
     3
170
     0
171
     0
290
     0
174
     0
 93
       13
 44
0.0
173
     0
291
     0
 45
0.0
1001
ACAD
1000
AcDbSavedByObjectVersion
1070
     0
  0
VISUALSTYLE
  5
3E
102
{ACAD_XDICTIONARY
360
696
102
}
102
{ACAD_REACTORS
330
29
102
}
330
29
100
AcDbVisualStyle
  2

 70
    27
 71
     2
 72
     2
 73
     1
 90
        2
 40
-0.6
 41
30.0
 62
     5
 63
     7
 74
     0
 91
        4
 64
     7
 65
   257
 75
     1
175
     1
 42
1.0
 92
        8
 66
   257
 43
1.0
 76
     1
 77
     6
 78
     2
 67
     8
 79
     3
170
     0
171
     0
290
     0
174
     0
 93
        5
 44
0.0
173
     0
291
     0
 45
0.0
1001
ACAD
1000
AcDbSavedByObjectVersion
1070
     0
  0
VISUALSTYLE
  5
3D
102
{ACAD_XDICTIONARY
360
694
102
}
102
{ACAD_REACTORS
330
29
102
}
330
29
100
AcDbVisualStyle
  2

 70
    26
 71
     2
 72
     2
 73
     1
 90
        2
 40
-0.6
 41
30.0
 62
     5
 63
     7
 74
     1
 91
       10
 64
     7
 65
   257
 75
     2
175
     1
 42
1.0
 92
        8
 66
   257
 43
1.0
 76
     1
 77
     6
 78
     2
 67
     7
 79
     3
170
     0
171
     0
290
     0
174
     0
 93
        5
 44
0.0
173
     0
291
     0
 45
0.0
1001
ACAD
1000
AcDbSavedByObjectVersion
1070
     0
  0
VISUALSTYLE
  5
3A
102
{ACAD_XDICTIONARY
360
68E
102
}
102
{ACAD_REACTORS
330
29
102
}
330
29
100
AcDbVisualStyle
  2

 70
    23
 71
     2
 72
     2
 73
     3
 90
        0
 40
-0.6
 41
-30.0
 62
     5
 63
     7
 74
     2
 91
        2
 64
     7
 65
     7
 75
     1
175
     1
 42
40.0
 92
        8
 66
     7
 43
1.0
 76
     1
 77
     6
 78
     2
 67
     7
 79
     3
170
     0
171
     0
290
     0
174
     0
 93
        1
 44
0.0
173
     0
291
     0
 45
0.0
1001
ACAD
1000
AcDbSavedByObjectVersion
1070
     0
  0
VISUALSTYLE
  5
3B
102
{ACAD_XDICTIONARY
360
690
102
}
102
{ACAD_REACTORS
330
29
102
}
330
29
100
AcDbVisualStyle
  2

 70
    24
 71
     1
 72
     2
 73
     2
 90
        0
 40
-0.6
 41
-30.0
 62
     5
 63
     7
 74
     2
 91
        2
 64
     7
 65
     7
 75
     1
175
     1
 42
40.0
 92
       11
 66
     7
 43
1.0
 76
     1
 77
     6
 78
     2
 67
     7
 79
     6
170
     0
171
     0
290
     0
174
     0
 93
        1
 44
0.0
173
     0
291
     0
 45
0.0
1001
ACAD
1000
AcDbSavedByObjectVersion
1070
     0
  0
VISUALSTYLE
  5
36
102
{ACAD_XDICTIONARY
360
686
102
}
102
{ACAD_REACTORS
330
29
102
}
330
29
100
AcDbVisualStyle
  2

 70
    13
 71
     2
 72
     2
 73
     0
 90
        0
 40
-0.6
 41
-30.0
 62
     5
 63
     7
 74
     1
 91
        4
 64
     7
 65
   257
 75
     1
175
     1
 42
1.0
 92
       12
 66
     7
 43
1.0
 76
     1
 77
     6
 78
     2
 67
     7
 79
     5
170
     0
171
     0
290
     0
174
     0
 93
        1
 44
0.0
173
     0
291
     1
 45
0.0
1001
ACAD
1000
AcDbSavedByObjectVersion
1070
     0
  0
VISUALSTYLE
  5
30
102
{ACAD_XDICTIONARY
360
67A
102
}
102
{ACAD_REACTORS
330
29
102
}
330
29
100
AcDbVisualStyle
  2

 70
     5
 71
     0
 72
     2
 73
     0
 90
        0
 40
-0.6
 41
-30.0
 62
     5
 63
     7
 74
     1
 91
        4
 64
     7
 65
   257
 75
     1
175
     1
 42
1.0
 92
        0
 66
   257
 43
1.0
 76
     1
 77
     6
 78
     2
 67
     7
 79
     3
170
     0
171
     0
290
     0
174
     0
 93
        1
 44
0.0
173
     0
291
     0
 45
0.0
1001
ACAD
1000
AcDbSavedByObjectVersion
1070
     0
  0
VISUALSTYLE
  5
3C
102
{ACAD_XDICTIONARY
360
692
102
}
102
{ACAD_REACTORS
330
29
102
}
330
29
100
AcDbVisualStyle
  2

 70
    25
 71
     2
 72
     2
 73
     1
 90
        1
 40
0.5
 41
-30.0
 62
     5
 63
     7
 74
     1
 91
        0
 64
     7
 65
   257
 75
     1
175
     1
 42
1.0
 92
        8
 66
     7
 43
1.0
 76
     1
 77
     6
 78
     2
 67
     7
 79
     3
170
     0
171
     0
290
     0
174
     0
 93
       13
 44
0.0
173
     0
291
     0
 45
0.0
1001
ACAD
1000
AcDbSavedByObjectVersion
1070
     0
  0
DICTIONARYVAR
  5
4E0
102
{ACAD_REACTORS
330
4DD
102
}
330
4DD
100
DictionaryVariables
280
     0
  1
1:1
  0
DICTIONARYVAR
  5
4DF
102
{ACAD_REACTORS
330
4DD
102
}
330
4DD
100
DictionaryVariables
280
     0
  1
STANDARD
  0
DICTIONARYVAR
  5
4DE
102
{ACAD_REACTORS
330
4DD
102
}
330
4DD
100
DictionaryVariables
280
     0
  1
STANDARD
  0
DICTIONARYVAR
  5
4E3
102
{ACAD_REACTORS
330
4DD
102
}
330
4DD
100
DictionaryVariables
280
     0
  1
1
  0
DICTIONARYVAR
  5
4E2
102
{ACAD_REACTORS
330
4DD
102
}
330
4DD
100
DictionaryVariables
280
     0
  1
0
  0
DICTIONARYVAR
  5
4E1
102
{ACAD_REACTORS
330
4DD
102
}
330
4DD
100
DictionaryVariables
280
     0
  1
127
  0
DICTIONARYVAR
  5
5CD
102
{ACAD_REACTORS
330
4DD
102
}
330
4DD
100
DictionaryVariables
280
     0
  1
2
  0
DICTIONARY
  5
6A1
330
6E
100
AcDbDictionary
280
     1
281
     1
  3
ACAD_XREC_ROUNDTRIP
360
6A2
  0
DICTIONARY
  5
69F
330
6A
100
AcDbDictionary
280
     1
281
     1
  3
ACAD_XREC_ROUNDTRIP
360
6A0
  0
DICTIONARY
  5
1A
330
19
100
AcDbDictionary
280
     1
281
     1
  3
ACAD_XREC_ROUNDTRIP
360
4EE
  3
BUMPTILE
360
1C
  3
DIFFUSETILE
360
1B
  3
OPACITYTILE
360
1F
  3
REFLECTIONTILE
360
1E
  3
REFRACTIONTILE
360
20
  3
SPECULARTILE
360
1D
  0
DICTIONARY
  5
12
330
11
100
AcDbDictionary
280
     1
281
     1
  3
ACAD_XREC_ROUNDTRIP
360
4ED
  3
BUMPTILE
360
14
  3
DIFFUSETILE
360
13
  3
OPACITYTILE
360
17
  3
REFLECTIONTILE
360
16
  3
REFRACTIONTILE
360
18
  3
SPECULARTILE
360
15
  0
DICTIONARY
  5
22
330
21
100
AcDbDictionary
280
     1
281
     1
  3
ACAD_XREC_ROUNDTRIP
360
4EF
  3
BUMPTILE
360
24
  3
DIFFUSETILE
360
23
  3
OPACITYTILE
360
27
  3
REFLECTIONTILE
360
26
  3
REFRACTIONTILE
360
28
  3
SPECULARTILE
360
25
  0
DICTIONARY
  5
4E5
330
64
100
AcDbDictionary
280
     1
281
     1
  3
ACAD_ROUNDTRIP_2008_TABLESTYLE_CELLSTYLEMAP
360
667
  3
ACAD_XREC_ROUNDTRIP
360
69E
  0
DICTIONARY
  5
678
330
2F
100
AcDbDictionary
280
     1
281
     1
  3
ACAD_XREC_ROUNDTRIP
360
679
  0
DICTIONARY
  5
6A3
330
2E0
100
AcDbDictionary
280
     1
281
     1
  3
ACAD_XREC_ROUNDTRIP
360
6A4
  0
DICTIONARY
  5
676
330
2E
100
AcDbDictionary
280
     1
281
     1
  3
ACAD_XREC_ROUNDTRIP
360
677
  0
DICTIONARY
  5
684
330
35
100
AcDbDictionary
280
     1
281
     1
  3
ACAD_XREC_ROUNDTRIP
360
685
  0
DICTIONARY
  5
68C
330
39
100
AcDbDictionary
280
     1
281
     1
  3
ACAD_XREC_ROUNDTRIP
360
68D
  0
DICTIONARY
  5
67E
330
32
100
AcDbDictionary
280
     1
281
     1
  3
ACAD_XREC_ROUNDTRIP
360
67F
  0
DICTIONARY
  5
682
330
34
100
AcDbDictionary
280
     1
281
     1
  3
ACAD_XREC_ROUNDTRIP
360
683
  0
DICTIONARY
  5
69C
330
41
100
AcDbDictionary
280
     1
281
     1
  3
ACAD_XREC_ROUNDTRIP
360
69D
  0
DICTIONARY
  5
68A
330
38
100
AcDbDictionary
280
     1
281
     1
  3
ACAD_XREC_ROUNDTRIP
360
68B
  0
DICTIONARY
  5
66E
330
2A
100
AcDbDictionary
280
     1
281
     1
  3
ACAD_XREC_ROUNDTRIP
360
66F
  0
DICTIONARY
  5
670
330
2B
100
AcDbDictionary
280
     1
281
     1
  3
ACAD_XREC_ROUNDTRIP
360
671
  0
DICTIONARY
  5
672
330
2C
100
AcDbDictionary
280
     1
281
     1
  3
ACAD_XREC_ROUNDTRIP
360
673
  0
DICTIONARY
  5
674
330
2D
100
AcDbDictionary
280
     1
281
     1
  3
ACAD_XREC_ROUNDTRIP
360
675
  0
DICTIONARY
  5
67C
330
31
100
AcDbDictionary
280
     1
281
     1
  3
ACAD_XREC_ROUNDTRIP
360
67D
  0
DICTIONARY
  5
698
330
3F
100
AcDbDictionary
280
     1
281
     1
  3
ACAD_XREC_ROUNDTRIP
360
699
  0
DICTIONARY
  5
688
330
37
100
AcDbDictionary
280
     1
281
     1
  3
ACAD_XREC_ROUNDTRIP
360
689
  0
DICTIONARY
  5
69A
330
40
100
AcDbDictionary
280
     1
281
     1
  3
ACAD_XREC_ROUNDTRIP
360
69B
  0
DICTIONARY
  5
680
330
33
100
AcDbDictionary
280
     1
281
     1
  3
ACAD_XREC_ROUNDTRIP
360
681
  0
DICTIONARY
  5
696
330
3E
100
AcDbDictionary
280
     1
281
     1
  3
ACAD_XREC_ROUNDTRIP
360
697
  0
DICTIONARY
  5
694
330
3D
100
AcDbDictionary
280
     1
281
     1
  3
ACAD_XREC_ROUNDTRIP
360
695
  0
DICTIONARY
  5
68E
330
3A
100
AcDbDictionary
280
     1
281
     1
  3
ACAD_XREC_ROUNDTRIP
360
68F
  0
DICTIONARY
  5
690
330
3B
100
AcDbDictionary
280
     1
281
     1
  3
ACAD_XREC_ROUNDTRIP
360
691
  0
DICTIONARY
  5
686
330
36
100
AcDbDictionary
280
     1
281
     1
  3
ACAD_XREC_ROUNDTRIP
360
687
  0
DICTIONARY
  5
67A
330
30
100
AcDbDictionary
280
     1
281
     1
  3
ACAD_XREC_ROUNDTRIP
360
67B
  0
DICTIONARY
  5
692
330
3C
100
AcDbDictionary
280
     1
281
     1
  3
ACAD_XREC_ROUNDTRIP
360
693
  0
XRECORD
  5
6A2
102
{ACAD_REACTORS
330
6A1
102
}
330
6A1
100
AcDbXrecord
280
     1
102
SHADEPLOT
 70
     0
102
SHADEPLOTRESLEVEL
 70
     2
102
SHADEPLOTCUSTOMDPI
 70
   300
  0
XRECORD
  5
6A0
102
{ACAD_REACTORS
330
69F
102
}
330
69F
100
AcDbXrecord
280
     1
102
SHADEPLOT
 70
     0
102
SHADEPLOTRESLEVEL
 70
     2
102
SHADEPLOTCUSTOMDPI
 70
   300
  0
XRECORD
  5
4EE
102
{ACAD_REACTORS
330
1A
102
}
330
1A
100
AcDbXrecord
280
     1
102
MATERIAL
148
0.0
149
0.0
149
0.0
 93
        0
 94
      127
282
     0
 72
     0
 77
     0
171
     0
175
     0
179
     0
273
     0
  0
XRECORD
  5
1C
102
{ACAD_REACTORS
330
1A
102
}
330
1A
100
AcDbXrecord
280
     1
270
     1
271
     1
  0
XRECORD
  5
1B
102
{ACAD_REACTORS
330
1A
102
}
330
1A
100
AcDbXrecord
280
     1
270
     1
271
     1
  0
XRECORD
  5
1F
102
{ACAD_REACTORS
330
1A
102
}
330
1A
100
AcDbXrecord
280
     1
270
     1
271
     1
  0
XRECORD
  5
1E
102
{ACAD_REACTORS
330
1A
102
}
330
1A
100
AcDbXrecord
280
     1
270
     1
271
     1
  0
XRECORD
  5
20
102
{ACAD_REACTORS
330
1A
102
}
330
1A
100
AcDbXrecord
280
     1
270
     1
271
     1
  0
XRECORD
  5
1D
102
{ACAD_REACTORS
330
1A
102
}
330
1A
100
AcDbXrecord
280
     1
270
     1
271
     1
  0
XRECORD
  5
4ED
102
{ACAD_REACTORS
330
12
102
}
330
12
100
AcDbXrecord
280
     1
102
MATERIAL
148
0.0
149
0.0
149
0.0
 93
        0
 94
      127
282
     0
 72
     0
 77
     0
171
     0
175
     0
179
     0
273
     0
  0
XRECORD
  5
14
102
{ACAD_REACTORS
330
12
102
}
330
12
100
AcDbXrecord
280
     1
270
     1
271
     1
  0
XRECORD
  5
13
102
{ACAD_REACTORS
330
12
102
}
330
12
100
AcDbXrecord
280
     1
270
     1
271
     1
  0
XRECORD
  5
17
102
{ACAD_REACTORS
330
12
102
}
330
12
100
AcDbXrecord
280
     1
270
     1
271
     1
  0
XRECORD
  5
16
102
{ACAD_REACTORS
330
12
102
}
330
12
100
AcDbXrecord
280
     1
270
     1
271
     1
  0
XRECORD
  5
18
102
{ACAD_REACTORS
330
12
102
}
330
12
100
AcDbXrecord
280
     1
270
     1
271
     1
  0
XRECORD
  5
15
102
{ACAD_REACTORS
330
12
102
}
330
12
100
AcDbXrecord
280
     1
270
     1
271
     1
  0
XRECORD
  5
4EF
102
{ACAD_REACTORS
330
22
102
}
330
22
100
AcDbXrecord
280
     1
102
MATERIAL
148
0.0
149
0.0
149
0.0
 93
        0
 94
      127
282
     0
 72
     0
 77
     0
171
     0
175
     0
179
     0
273
     0
  0
XRECORD
  5
24
102
{ACAD_REACTORS
330
22
102
}
330
22
100
AcDbXrecord
280
     1
270
     1
271
     1
  0
XRECORD
  5
23
102
{ACAD_REACTORS
330
22
102
}
330
22
100
AcDbXrecord
280
     1
270
     1
271
     1
  0
XRECORD
  5
27
102
{ACAD_REACTORS
330
22
102
}
330
22
100
AcDbXrecord
280
     1
270
     1
271
     1
  0
XRECORD
  5
26
102
{ACAD_REACTORS
330
22
102
}
330
22
100
AcDbXrecord
280
     1
270
     1
271
     1
  0
XRECORD
  5
28
102
{ACAD_REACTORS
330
22
102
}
330
22
100
AcDbXrecord
280
     1
270
     1
271
     1
  0
XRECORD
  5
25
102
{ACAD_REACTORS
330
22
102
}
330
22
100
AcDbXrecord
280
     1
270
     1
271
     1
  0
CELLSTYLEMAP
  5
667
102
{ACAD_REACTORS
330
4E5
102
}
330
4E5
100
AcDbCellStyleMap
 90
        3
300
CELLSTYLE
  1
TABLEFORMAT_BEGIN
 90
        5
170
     1
 91
        0
 92
    32768
 62
   257
 93
        1
300
CONTENTFORMAT
  1
CONTENTFORMAT_BEGIN
 90
        0
 91
        0
 92
      512
 93
        0
300

 40
0.0
140
1.0
 94
        5
 62
     0
340
55
144
0.25
309
CONTENTFORMAT_END
171
     1
301
MARGIN
  1
CELLMARGIN_BEGIN
 40
0.06
 40
0.06
 40
0.06
 40
0.06
 40
0.18
 40
0.18
309
CELLMARGIN_END
 94
        6
 95
        1
302
GRIDFORMAT
  1
GRIDFORMAT_BEGIN
 90
        0
 91
        1
 62
     0
 92
       -2
340
0
 93
        0
 40
0.045
309
GRIDFORMAT_END
 95
        2
302
GRIDFORMAT
  1
GRIDFORMAT_BEGIN
 90
        0
 91
        1
 62
     0
 92
       -2
340
0
 93
        0
 40
0.045
309
GRIDFORMAT_END
 95
        4
302
GRIDFORMAT
  1
GRIDFORMAT_BEGIN
 90
        0
 91
        1
 62
     0
 92
       -2
340
0
 93
        0
 40
0.045
309
GRIDFORMAT_END
 95
        8
302
GRIDFORMAT
  1
GRIDFORMAT_BEGIN
 90
        0
 91
        1
 62
     0
 92
       -2
340
0
 93
        0
 40
0.045
309
GRIDFORMAT_END
 95
       16
302
GRIDFORMAT
  1
GRIDFORMAT_BEGIN
 90
        0
 91
        1
 62
     0
 92
       -2
340
0
 93
        0
 40
0.045
309
GRIDFORMAT_END
 95
       32
302
GRIDFORMAT
  1
GRIDFORMAT_BEGIN
 90
        0
 91
        1
 62
     0
 92
       -2
340
0
 93
        0
 40
0.045
309
GRIDFORMAT_END
309
TABLEFORMAT_END
  1
CELLSTYLE_BEGIN
 90
        1
 91
        1
300
_TITLE
309
CELLSTYLE_END
300
CELLSTYLE
  1
TABLEFORMAT_BEGIN
 90
        5
170
     1
 91
        0
 92
        0
 62
   257
 93
        1
300
CONTENTFORMAT
  1
CONTENTFORMAT_BEGIN
 90
        0
 91
        0
 92
      512
 93
        0
300

 40
0.0
140
1.0
 94
        5
 62
     0
340
55
144
0.18
309
CONTENTFORMAT_END
171
     1
301
MARGIN
  1
CELLMARGIN_BEGIN
 40
0.06
 40
0.06
 40
0.06
 40
0.06
 40
0.18
 40
0.18
309
CELLMARGIN_END
 94
        6
 95
        1
302
GRIDFORMAT
  1
GRIDFORMAT_BEGIN
 90
        0
 91
        1
 62
     0
 92
       -2
340
0
 93
        0
 40
0.045
309
GRIDFORMAT_END
 95
        2
302
GRIDFORMAT
  1
GRIDFORMAT_BEGIN
 90
        0
 91
        1
 62
     0
 92
       -2
340
0
 93
        0
 40
0.045
309
GRIDFORMAT_END
 95
        4
302
GRIDFORMAT
  1
GRIDFORMAT_BEGIN
 90
        0
 91
        1
 62
     0
 92
       -2
340
0
 93
        0
 40
0.045
309
GRIDFORMAT_END
 95
        8
302
GRIDFORMAT
  1
GRIDFORMAT_BEGIN
 90
        0
 91
        1
 62
     0
 92
       -2
340
0
 93
        0
 40
0.045
309
GRIDFORMAT_END
 95
       16
302
GRIDFORMAT
  1
GRIDFORMAT_BEGIN
 90
        0
 91
        1
 62
     0
 92
       -2
340
0
 93
        0
 40
0.045
309
GRIDFORMAT_END
 95
       32
302
GRIDFORMAT
  1
GRIDFORMAT_BEGIN
 90
        0
 91
        1
 62
     0
 92
       -2
340
0
 93
        0
 40
0.045
309
GRIDFORMAT_END
309
TABLEFORMAT_END
  1
CELLSTYLE_BEGIN
 90
        2
 91
        1
300
_HEADER
309
CELLSTYLE_END
300
CELLSTYLE
  1
TABLEFORMAT_BEGIN
 90
        5
170
     1
 91
        0
 92
        0
 62
   257
 93
        1
300
CONTENTFORMAT
  1
CONTENTFORMAT_BEGIN
 90
        0
 91
        0
 92
      512
 93
        0
300

 40
0.0
140
1.0
 94
        2
 62
     0
340
55
144
0.18
309
CONTENTFORMAT_END
171
     1
301
MARGIN
  1
CELLMARGIN_BEGIN
 40
0.06
 40
0.06
 40
0.06
 40
0.06
 40
0.18
 40
0.18
309
CELLMARGIN_END
 94
        6
 95
        1
302
GRIDFORMAT
  1
GRIDFORMAT_BEGIN
 90
        0
 91
        1
 62
     0
 92
       -2
340
0
 93
        0
 40
0.045
309
GRIDFORMAT_END
 95
        2
302
GRIDFORMAT
  1
GRIDFORMAT_BEGIN
 90
        0
 91
        1
 62
     0
 92
       -2
340
0
 93
        0
 40
0.045
309
GRIDFORMAT_END
 95
        4
302
GRIDFORMAT
  1
GRIDFORMAT_BEGIN
 90
        0
 91
        1
 62
     0
 92
       -2
340
0
 93
        0
 40
0.045
309
GRIDFORMAT_END
 95
        8
302
GRIDFORMAT
  1
GRIDFORMAT_BEGIN
 90
        0
 91
        1
 62
     0
 92
       -2
340
0
 93
        0
 40
0.045
309
GRIDFORMAT_END
 95
       16
302
GRIDFORMAT
  1
GRIDFORMAT_BEGIN
 90
        0
 91
        1
 62
     0
 92
       -2
340
0
 93
        0
 40
0.045
309
GRIDFORMAT_END
 95
       32
302
GRIDFORMAT
  1
GRIDFORMAT_BEGIN
 90
        0
 91
        1
 62
     0
 92
       -2
340
0
 93
        0
 40
0.045
309
GRIDFORMAT_END
309
TABLEFORMAT_END
  1
CELLSTYLE_BEGIN
 90
        3
 91
        2
300
_DATA
309
CELLSTYLE_END
  0
XRECORD
  5
69E
102
{ACAD_REACTORS
330
4E5
102
}
330
4E5
100
AcDbXrecord
280
     1
102
ACAD_ROUNDTRIP_PRE2007_TABLESTYLE
 90
      512
 91
        0
  1

 92
      512
 93
        0
  2

 94
      512
 95
        0
  3

  0
XRECORD
  5
679
102
{ACAD_REACTORS
330
678
102
}
330
678
100
AcDbXrecord
280
     1
102
RTVSPropertyOp0
 70
     1
102
RTVSPropertyOp1
 70
     1
102
RTVSPropertyOp2
 70
     1
102
RTVSPropertyOp3
 70
     1
102
RTVSPropertyOp4
 70
     1
102
RTVSPropertyOp5
 70
     1
102
RTVSPropertyOp6
 70
     1
102
RTVSPropertyOp7
 70
     1
102
RTVSPropertyOp8
 70
     1
102
RTVSPropertyOp9
 70
     1
102
RTVSPropertyOp10
 70
     1
102
RTVSPropertyOp11
 70
     1
102
RTVSPropertyOp12
 70
     1
102
RTVSPropertyOp13
 70
     1
102
RTVSPropertyOp14
 70
     1
102
RTVSPropertyOp15
 70
     1
102
RTVSPropertyOp16
 70
     1
102
RTVSPropertyOp17
 70
     1
102
RTVSPropertyOp18
 70
     1
102
RTVSPropertyOp19
 70
     1
102
RTVSPropertyOp20
 70
     1
102
RTVSPropertyOp21
 70
     1
102
RTVSPropertyOp22
 70
     1
102
RTVSPropertyOp23
 70
     1
102
RTVSPropertyOp24
 70
     1
102
RTVSPropertyOp25
 70
     1
102
RTVSPropertyOp26
 70
     1
102
RTVSPropertyOp27
 70
     1
102
RTVSPropertyOp28
 70
     1
102
RTVSPropertyOp29
 70
     1
102
RTVSPropertyOp30
 70
     1
102
RTVSPropertyOp31
 70
     1
102
RTVSPropertyOp32
 70
     1
  0
XRECORD
  5
6A4
102
{ACAD_REACTORS
330
6A3
102
}
330
6A3
100
AcDbXrecord
280
     1
102
RTVSPropertyOp0
 70
     1
102
RTVSPropertyOp1
 70
     1
102
RTVSPropertyOp2
 70
     1
102
RTVSPropertyOp3
 70
     1
102
RTVSPropertyOp4
 70
     1
102
RTVSPropertyOp5
 70
     1
102
RTVSPropertyOp6
 70
     1
102
RTVSPropertyOp7
 70
     1
102
RTVSPropertyOp8
 70
     1
102
RTVSPropertyOp9
 70
     1
102
RTVSPropertyOp10
 70
     1
102
RTVSPropertyOp11
 70
     1
102
RTVSPropertyOp12
 70
     1
102
RTVSPropertyOp13
 70
     1
102
RTVSPropertyOp14
 70
     1
102
RTVSPropertyOp15
 70
     1
102
RTVSPropertyOp16
 70
     1
102
RTVSPropertyOp17
 70
     1
102
RTVSPropertyOp18
 70
     1
102
RTVSPropertyOp19
 70
     1
102
RTVSPropertyOp20
 70
     1
102
RTVSPropertyOp21
 70
     1
102
RTVSPropertyOp22
 70
     1
102
RTVSPropertyOp23
 70
     1
102
RTVSPropertyOp24
 70
     1
102
RTVSPropertyOp25
 70
     1
102
RTVSPropertyOp26
 70
     1
102
RTVSPropertyOp27
 70
     1
102
RTVSPropertyOp28
 70
     1
102
RTVSPropertyOp29
 70
     1
102
RTVSPropertyOp30
 70
     1
102
RTVSPropertyOp31
 70
     1
102
RTVSPropertyOp32
 70
     1
  0
XRECORD
  5
677
102
{ACAD_REACTORS
330
676
102
}
330
676
100
AcDbXrecord
280
     1
102
RTVSPropertyOp0
 70
     1
102
RTVSPropertyOp1
 70
     1
102
RTVSPropertyOp2
 70
     1
102
RTVSPropertyOp3
 70
     1
102
RTVSPropertyOp4
 70
     1
102
RTVSPropertyOp5
 70
     1
102
RTVSPropertyOp6
 70
     1
102
RTVSPropertyOp7
 70
     1
102
RTVSPropertyOp8
 70
     1
102
RTVSPropertyOp9
 70
     1
102
RTVSPropertyOp10
 70
     1
102
RTVSPropertyOp11
 70
     1
102
RTVSPropertyOp12
 70
     1
102
RTVSPropertyOp13
 70
     1
102
RTVSPropertyOp14
 70
     1
102
RTVSPropertyOp15
 70
     1
102
RTVSPropertyOp16
 70
     1
102
RTVSPropertyOp17
 70
     1
102
RTVSPropertyOp18
 70
     1
102
RTVSPropertyOp19
 70
     1
102
RTVSPropertyOp20
 70
     1
102
RTVSPropertyOp21
 70
     1
102
RTVSPropertyOp22
 70
     1
102
RTVSPropertyOp23
 70
     1
102
RTVSPropertyOp24
 70
     1
102
RTVSPropertyOp25
 70
     1
102
RTVSPropertyOp26
 70
     1
102
RTVSPropertyOp27
 70
     1
102
RTVSPropertyOp28
 70
     1
102
RTVSPropertyOp29
 70
     1
102
RTVSPropertyOp30
 70
     1
102
RTVSPropertyOp31
 70
     1
102
RTVSPropertyOp32
 70
     1
  0
XRECORD
  5
685
102
{ACAD_REACTORS
330
684
102
}
330
684
100
AcDbXrecord
280
     1
102
RTVSPropertyOp0
 70
     1
102
RTVSPropertyOp1
 70
     1
102
RTVSPropertyOp2
 70
     1
102
RTVSPropertyOp3
 70
     1
102
RTVSPropertyOp4
 70
     1
102
RTVSPropertyOp5
 70
     1
102
RTVSPropertyOp6
 70
     1
102
RTVSPropertyOp7
 70
     1
102
RTVSPropertyOp8
 70
     1
102
RTVSPropertyOp9
 70
     1
102
RTVSPropertyOp10
 70
     1
102
RTVSPropertyOp11
 70
     1
102
RTVSPropertyOp12
 70
     1
102
RTVSPropertyOp13
 70
     1
102
RTVSPropertyOp14
 70
     1
102
RTVSPropertyOp15
 70
     1
102
RTVSPropertyOp16
 70
     1
102
RTVSPropertyOp17
 70
     1
102
RTVSPropertyOp18
 70
     1
102
RTVSPropertyOp19
 70
     1
102
RTVSPropertyOp20
 70
     1
102
RTVSPropertyOp21
 70
     1
102
RTVSPropertyOp22
 70
     1
102
RTVSPropertyOp23
 70
     1
102
RTVSPropertyOp24
 70
     1
102
RTVSPropertyOp25
 70
     1
102
RTVSPropertyOp26
 70
     1
102
RTVSPropertyOp27
 70
     1
102
RTVSPropertyOp28
 70
     1
102
RTVSPropertyOp29
 70
     1
102
RTVSPropertyOp30
 70
     1
102
RTVSPropertyOp31
 70
     1
102
RTVSPropertyOp32
 70
     1
  0
XRECORD
  5
68D
102
{ACAD_REACTORS
330
68C
102
}
330
68C
100
AcDbXrecord
280
     1
102
RTVSPropertyOp0
 70
     1
102
RTVSPropertyOp1
 70
     1
102
RTVSPropertyOp2
 70
     1
102
RTVSPropertyOp3
 70
     1
102
RTVSPropertyOp4
 70
     1
102
RTVSPropertyOp5
 70
     1
102
RTVSPropertyOp6
 70
     1
102
RTVSPropertyOp7
 70
     1
102
RTVSPropertyOp8
 70
     1
102
RTVSPropertyOp9
 70
     1
102
RTVSPropertyOp10
 70
     1
102
RTVSPropertyOp11
 70
     1
102
RTVSPropertyOp12
 70
     1
102
RTVSPropertyOp13
 70
     1
102
RTVSPropertyOp14
 70
     1
102
RTVSPropertyOp15
 70
     1
102
RTVSPropertyOp16
 70
     1
102
RTVSPropertyOp17
 70
     1
102
RTVSPropertyOp18
 70
     1
102
RTVSPropertyOp19
 70
     1
102
RTVSPropertyOp20
 70
     1
102
RTVSPropertyOp21
 70
     1
102
RTVSPropertyOp22
 70
     1
102
RTVSPropertyOp23
 70
     1
102
RTVSPropertyOp24
 70
     1
102
RTVSPropertyOp25
 70
     1
102
RTVSPropertyOp26
 70
     1
102
RTVSPropertyOp27
 70
     1
102
RTVSPropertyOp28
 70
     1
102
RTVSPropertyOp29
 70
     1
102
RTVSPropertyOp30
 70
     1
102
RTVSPropertyOp31
 70
     1
102
RTVSPropertyOp32
 70
     1
  0
XRECORD
  5
67F
102
{ACAD_REACTORS
330
67E
102
}
330
67E
100
AcDbXrecord
280
     1
102
RTVSPropertyOp0
 70
     1
102
RTVSPropertyOp1
 70
     1
102
RTVSPropertyOp2
 70
     1
102
RTVSPropertyOp3
 70
     1
102
RTVSPropertyOp4
 70
     1
102
RTVSPropertyOp5
 70
     1
102
RTVSPropertyOp6
 70
     1
102
RTVSPropertyOp7
 70
     1
102
RTVSPropertyOp8
 70
     1
102
RTVSPropertyOp9
 70
     1
102
RTVSPropertyOp10
 70
     1
102
RTVSPropertyOp11
 70
     1
102
RTVSPropertyOp12
 70
     1
102
RTVSPropertyOp13
 70
     1
102
RTVSPropertyOp14
 70
     1
102
RTVSPropertyOp15
 70
     1
102
RTVSPropertyOp16
 70
     1
102
RTVSPropertyOp17
 70
     1
102
RTVSPropertyOp18
 70
     1
102
RTVSPropertyOp19
 70
     1
102
RTVSPropertyOp20
 70
     1
102
RTVSPropertyOp21
 70
     1
102
RTVSPropertyOp22
 70
     1
102
RTVSPropertyOp23
 70
     1
102
RTVSPropertyOp24
 70
     1
102
RTVSPropertyOp25
 70
     1
102
RTVSPropertyOp26
 70
     1
102
RTVSPropertyOp27
 70
     1
102
RTVSPropertyOp28
 70
     1
102
RTVSPropertyOp29
 70
     1
102
RTVSPropertyOp30
 70
     1
102
RTVSPropertyOp31
 70
     1
102
RTVSPropertyOp32
 70
     1
  0
XRECORD
  5
683
102
{ACAD_REACTORS
330
682
102
}
330
682
100
AcDbXrecord
280
     1
102
RTVSPropertyOp0
 70
     1
102
RTVSPropertyOp1
 70
     1
102
RTVSPropertyOp2
 70
     1
102
RTVSPropertyOp3
 70
     1
102
RTVSPropertyOp4
 70
     1
102
RTVSPropertyOp5
 70
     1
102
RTVSPropertyOp6
 70
     1
102
RTVSPropertyOp7
 70
     1
102
RTVSPropertyOp8
 70
     1
102
RTVSPropertyOp9
 70
     1
102
RTVSPropertyOp10
 70
     1
102
RTVSPropertyOp11
 70
     1
102
RTVSPropertyOp12
 70
     1
102
RTVSPropertyOp13
 70
     1
102
RTVSPropertyOp14
 70
     1
102
RTVSPropertyOp15
 70
     1
102
RTVSPropertyOp16
 70
     1
102
RTVSPropertyOp17
 70
     1
102
RTVSPropertyOp18
 70
     1
102
RTVSPropertyOp19
 70
     1
102
RTVSPropertyOp20
 70
     1
102
RTVSPropertyOp21
 70
     1
102
RTVSPropertyOp22
 70
     1
102
RTVSPropertyOp23
 70
     1
102
RTVSPropertyOp24
 70
     1
102
RTVSPropertyOp25
 70
     1
102
RTVSPropertyOp26
 70
     1
102
RTVSPropertyOp27
 70
     1
102
RTVSPropertyOp28
 70
     1
102
RTVSPropertyOp29
 70
     1
102
RTVSPropertyOp30
 70
     1
102
RTVSPropertyOp31
 70
     1
102
RTVSPropertyOp32
 70
     1
  0
XRECORD
  5
69D
102
{ACAD_REACTORS
330
69C
102
}
330
69C
100
AcDbXrecord
280
     1
102
RTVSPropertyOp0
 70
     0
102
RTVSPropertyOp1
 70
     0
102
RTVSPropertyOp2
 70
     0
102
RTVSPropertyOp3
 70
     0
102
RTVSPropertyOp4
 70
     0
102
RTVSPropertyOp5
 70
     0
102
RTVSPropertyOp6
 70
     0
102
RTVSPropertyOp7
 70
     0
102
RTVSPropertyOp8
 70
     0
102
RTVSPropertyOp9
 70
     0
102
RTVSPropertyOp10
 70
     0
102
RTVSPropertyOp11
 70
     0
102
RTVSPropertyOp12
 70
     0
102
RTVSPropertyOp13
 70
     0
102
RTVSPropertyOp14
 70
     2
102
RTVSPropertyOp15
 70
     0
102
RTVSPropertyOp16
 70
     0
102
RTVSPropertyOp17
 70
     0
102
RTVSPropertyOp18
 70
     0
102
RTVSPropertyOp19
 70
     0
102
RTVSPropertyOp20
 70
     0
102
RTVSPropertyOp21
 70
     0
102
RTVSPropertyOp22
 70
     0
102
RTVSPropertyOp23
 70
     0
102
RTVSPropertyOp24
 70
     0
102
RTVSPropertyOp25
 70
     0
102
RTVSPropertyOp26
 70
     0
102
RTVSPropertyOp27
 70
     0
102
RTVSPropertyOp28
 70
     0
102
RTVSPropertyOp29
 70
     0
102
RTVSPropertyOp30
 70
     0
102
RTVSPropertyOp31
 70
     0
102
RTVSPropertyOp32
 70
     0
  0
XRECORD
  5
68B
102
{ACAD_REACTORS
330
68A
102
}
330
68A
100
AcDbXrecord
280
     1
102
RTVSPropertyOp0
 70
     1
102
RTVSPropertyOp1
 70
     1
102
RTVSPropertyOp2
 70
     1
102
RTVSPropertyOp3
 70
     1
102
RTVSPropertyOp4
 70
     1
102
RTVSPropertyOp5
 70
     1
102
RTVSPropertyOp6
 70
     1
102
RTVSPropertyOp7
 70
     1
102
RTVSPropertyOp8
 70
     1
102
RTVSPropertyOp9
 70
     1
102
RTVSPropertyOp10
 70
     1
102
RTVSPropertyOp11
 70
     1
102
RTVSPropertyOp12
 70
     1
102
RTVSPropertyOp13
 70
     1
102
RTVSPropertyOp14
 70
     1
102
RTVSPropertyOp15
 70
     1
102
RTVSPropertyOp16
 70
     1
102
RTVSPropertyOp17
 70
     1
102
RTVSPropertyOp18
 70
     1
102
RTVSPropertyOp19
 70
     1
102
RTVSPropertyOp20
 70
     1
102
RTVSPropertyOp21
 70
     1
102
RTVSPropertyOp22
 70
     1
102
RTVSPropertyOp23
 70
     1
102
RTVSPropertyOp24
 70
     1
102
RTVSPropertyOp25
 70
     1
102
RTVSPropertyOp26
 70
     1
102
RTVSPropertyOp27
 70
     1
102
RTVSPropertyOp28
 70
     1
102
RTVSPropertyOp29
 70
     1
102
RTVSPropertyOp30
 70
     1
102
RTVSPropertyOp31
 70
     1
102
RTVSPropertyOp32
 70
     1
  0
XRECORD
  5
66F
102
{ACAD_REACTORS
330
66E
102
}
330
66E
100
AcDbXrecord
280
     1
102
RTVSPropertyOp0
 70
     1
102
RTVSPropertyOp1
 70
     1
102
RTVSPropertyOp2
 70
     1
102
RTVSPropertyOp3
 70
     1
102
RTVSPropertyOp4
 70
     1
102
RTVSPropertyOp5
 70
     1
102
RTVSPropertyOp6
 70
     1
102
RTVSPropertyOp7
 70
     1
102
RTVSPropertyOp8
 70
     1
102
RTVSPropertyOp9
 70
     1
102
RTVSPropertyOp10
 70
     1
102
RTVSPropertyOp11
 70
     1
102
RTVSPropertyOp12
 70
     1
102
RTVSPropertyOp13
 70
     1
102
RTVSPropertyOp14
 70
     1
102
RTVSPropertyOp15
 70
     1
102
RTVSPropertyOp16
 70
     1
102
RTVSPropertyOp17
 70
     1
102
RTVSPropertyOp18
 70
     1
102
RTVSPropertyOp19
 70
     1
102
RTVSPropertyOp20
 70
     1
102
RTVSPropertyOp21
 70
     1
102
RTVSPropertyOp22
 70
     1
102
RTVSPropertyOp23
 70
     1
102
RTVSPropertyOp24
 70
     1
102
RTVSPropertyOp25
 70
     1
102
RTVSPropertyOp26
 70
     1
102
RTVSPropertyOp27
 70
     1
102
RTVSPropertyOp28
 70
     1
102
RTVSPropertyOp29
 70
     1
102
RTVSPropertyOp30
 70
     1
102
RTVSPropertyOp31
 70
     1
102
RTVSPropertyOp32
 70
     1
  0
XRECORD
  5
671
102
{ACAD_REACTORS
330
670
102
}
330
670
100
AcDbXrecord
280
     1
102
RTVSPropertyOp0
 70
     1
102
RTVSPropertyOp1
 70
     1
102
RTVSPropertyOp2
 70
     1
102
RTVSPropertyOp3
 70
     1
102
RTVSPropertyOp4
 70
     1
102
RTVSPropertyOp5
 70
     1
102
RTVSPropertyOp6
 70
     1
102
RTVSPropertyOp7
 70
     1
102
RTVSPropertyOp8
 70
     1
102
RTVSPropertyOp9
 70
     1
102
RTVSPropertyOp10
 70
     1
102
RTVSPropertyOp11
 70
     1
102
RTVSPropertyOp12
 70
     1
102
RTVSPropertyOp13
 70
     1
102
RTVSPropertyOp14
 70
     1
102
RTVSPropertyOp15
 70
     1
102
RTVSPropertyOp16
 70
     1
102
RTVSPropertyOp17
 70
     1
102
RTVSPropertyOp18
 70
     1
102
RTVSPropertyOp19
 70
     1
102
RTVSPropertyOp20
 70
     1
102
RTVSPropertyOp21
 70
     1
102
RTVSPropertyOp22
 70
     1
102
RTVSPropertyOp23
 70
     1
102
RTVSPropertyOp24
 70
     1
102
RTVSPropertyOp25
 70
     1
102
RTVSPropertyOp26
 70
     1
102
RTVSPropertyOp27
 70
     1
102
RTVSPropertyOp28
 70
     1
102
RTVSPropertyOp29
 70
     1
102
RTVSPropertyOp30
 70
     1
102
RTVSPropertyOp31
 70
     1
102
RTVSPropertyOp32
 70
     1
  0
XRECORD
  5
673
102
{ACAD_REACTORS
330
672
102
}
330
672
100
AcDbXrecord
280
     1
102
RTVSPropertyOp0
 70
     1
102
RTVSPropertyOp1
 70
     1
102
RTVSPropertyOp2
 70
     1
102
RTVSPropertyOp3
 70
     1
102
RTVSPropertyOp4
 70
     1
102
RTVSPropertyOp5
 70
     1
102
RTVSPropertyOp6
 70
     1
102
RTVSPropertyOp7
 70
     1
102
RTVSPropertyOp8
 70
     1
102
RTVSPropertyOp9
 70
     1
102
RTVSPropertyOp10
 70
     1
102
RTVSPropertyOp11
 70
     1
102
RTVSPropertyOp12
 70
     1
102
RTVSPropertyOp13
 70
     1
102
RTVSPropertyOp14
 70
     1
102
RTVSPropertyOp15
 70
     1
102
RTVSPropertyOp16
 70
     1
102
RTVSPropertyOp17
 70
     1
102
RTVSPropertyOp18
 70
     1
102
RTVSPropertyOp19
 70
     1
102
RTVSPropertyOp20
 70
     1
102
RTVSPropertyOp21
 70
     1
102
RTVSPropertyOp22
 70
     1
102
RTVSPropertyOp23
 70
     1
102
RTVSPropertyOp24
 70
     1
102
RTVSPropertyOp25
 70
     1
102
RTVSPropertyOp26
 70
     1
102
RTVSPropertyOp27
 70
     1
102
RTVSPropertyOp28
 70
     1
102
RTVSPropertyOp29
 70
     1
102
RTVSPropertyOp30
 70
     1
102
RTVSPropertyOp31
 70
     1
102
RTVSPropertyOp32
 70
     1
  0
XRECORD
  5
675
102
{ACAD_REACTORS
330
674
102
}
330
674
100
AcDbXrecord
280
     1
102
RTVSPropertyOp0
 70
     1
102
RTVSPropertyOp1
 70
     1
102
RTVSPropertyOp2
 70
     1
102
RTVSPropertyOp3
 70
     1
102
RTVSPropertyOp4
 70
     1
102
RTVSPropertyOp5
 70
     1
102
RTVSPropertyOp6
 70
     1
102
RTVSPropertyOp7
 70
     1
102
RTVSPropertyOp8
 70
     1
102
RTVSPropertyOp9
 70
     1
102
RTVSPropertyOp10
 70
     1
102
RTVSPropertyOp11
 70
     1
102
RTVSPropertyOp12
 70
     1
102
RTVSPropertyOp13
 70
     1
102
RTVSPropertyOp14
 70
     1
102
RTVSPropertyOp15
 70
     1
102
RTVSPropertyOp16
 70
     1
102
RTVSPropertyOp17
 70
     1
102
RTVSPropertyOp18
 70
     1
102
RTVSPropertyOp19
 70
     1
102
RTVSPropertyOp20
 70
     1
102
RTVSPropertyOp21
 70
     1
102
RTVSPropertyOp22
 70
     1
102
RTVSPropertyOp23
 70
     1
102
RTVSPropertyOp24
 70
     1
102
RTVSPropertyOp25
 70
     1
102
RTVSPropertyOp26
 70
     1
102
RTVSPropertyOp27
 70
     1
102
RTVSPropertyOp28
 70
     1
102
RTVSPropertyOp29
 70
     1
102
RTVSPropertyOp30
 70
     1
102
RTVSPropertyOp31
 70
     1
102
RTVSPropertyOp32
 70
     1
  0
XRECORD
  5
67D
102
{ACAD_REACTORS
330
67C
102
}
330
67C
100
AcDbXrecord
280
     1
102
RTVSPropertyOp0
 70
     1
102
RTVSPropertyOp1
 70
     1
102
RTVSPropertyOp2
 70
     1
102
RTVSPropertyOp3
 70
     1
102
RTVSPropertyOp4
 70
     1
102
RTVSPropertyOp5
 70
     1
102
RTVSPropertyOp6
 70
     1
102
RTVSPropertyOp7
 70
     1
102
RTVSPropertyOp8
 70
     1
102
RTVSPropertyOp9
 70
     1
102
RTVSPropertyOp10
 70
     1
102
RTVSPropertyOp11
 70
     1
102
RTVSPropertyOp12
 70
     1
102
RTVSPropertyOp13
 70
     1
102
RTVSPropertyOp14
 70
     1
102
RTVSPropertyOp15
 70
     1
102
RTVSPropertyOp16
 70
     1
102
RTVSPropertyOp17
 70
     1
102
RTVSPropertyOp18
 70
     1
102
RTVSPropertyOp19
 70
     1
102
RTVSPropertyOp20
 70
     1
102
RTVSPropertyOp21
 70
     1
102
RTVSPropertyOp22
 70
     1
102
RTVSPropertyOp23
 70
     1
102
RTVSPropertyOp24
 70
     1
102
RTVSPropertyOp25
 70
     1
102
RTVSPropertyOp26
 70
     1
102
RTVSPropertyOp27
 70
     1
102
RTVSPropertyOp28
 70
     1
102
RTVSPropertyOp29
 70
     1
102
RTVSPropertyOp30
 70
     1
102
RTVSPropertyOp31
 70
     1
102
RTVSPropertyOp32
 70
     1
  0
XRECORD
  5
699
102
{ACAD_REACTORS
330
698
102
}
330
698
100
AcDbXrecord
280
     1
102
RTVSPropertyOp0
 70
     0
102
RTVSPropertyOp1
 70
     0
102
RTVSPropertyOp2
 70
     0
102
RTVSPropertyOp3
 70
     0
102
RTVSPropertyOp4
 70
     0
102
RTVSPropertyOp5
 70
     0
102
RTVSPropertyOp6
 70
     0
102
RTVSPropertyOp7
 70
     0
102
RTVSPropertyOp8
 70
     0
102
RTVSPropertyOp9
 70
     0
102
RTVSPropertyOp10
 70
     0
102
RTVSPropertyOp11
 70
     0
102
RTVSPropertyOp12
 70
     0
102
RTVSPropertyOp13
 70
     0
102
RTVSPropertyOp14
 70
     2
102
RTVSPropertyOp15
 70
     0
102
RTVSPropertyOp16
 70
     0
102
RTVSPropertyOp17
 70
     0
102
RTVSPropertyOp18
 70
     0
102
RTVSPropertyOp19
 70
     0
102
RTVSPropertyOp20
 70
     0
102
RTVSPropertyOp21
 70
     0
102
RTVSPropertyOp22
 70
     0
102
RTVSPropertyOp23
 70
     0
102
RTVSPropertyOp24
 70
     0
102
RTVSPropertyOp25
 70
     0
102
RTVSPropertyOp26
 70
     0
102
RTVSPropertyOp27
 70
     0
102
RTVSPropertyOp28
 70
     0
102
RTVSPropertyOp29
 70
     0
102
RTVSPropertyOp30
 70
     0
102
RTVSPropertyOp31
 70
     0
102
RTVSPropertyOp32
 70
     0
  0
XRECORD
  5
689
102
{ACAD_REACTORS
330
688
102
}
330
688
100
AcDbXrecord
280
     1
102
RTVSPropertyOp0
 70
     1
102
RTVSPropertyOp1
 70
     1
102
RTVSPropertyOp2
 70
     1
102
RTVSPropertyOp3
 70
     1
102
RTVSPropertyOp4
 70
     1
102
RTVSPropertyOp5
 70
     1
102
RTVSPropertyOp6
 70
     1
102
RTVSPropertyOp7
 70
     1
102
RTVSPropertyOp8
 70
     1
102
RTVSPropertyOp9
 70
     1
102
RTVSPropertyOp10
 70
     1
102
RTVSPropertyOp11
 70
     1
102
RTVSPropertyOp12
 70
     1
102
RTVSPropertyOp13
 70
     1
102
RTVSPropertyOp14
 70
     1
102
RTVSPropertyOp15
 70
     1
102
RTVSPropertyOp16
 70
     1
102
RTVSPropertyOp17
 70
     1
102
RTVSPropertyOp18
 70
     1
102
RTVSPropertyOp19
 70
     1
102
RTVSPropertyOp20
 70
     1
102
RTVSPropertyOp21
 70
     1
102
RTVSPropertyOp22
 70
     1
102
RTVSPropertyOp23
 70
     1
102
RTVSPropertyOp24
 70
     1
102
RTVSPropertyOp25
 70
     1
102
RTVSPropertyOp26
 70
     1
102
RTVSPropertyOp27
 70
     1
102
RTVSPropertyOp28
 70
     1
102
RTVSPropertyOp29
 70
     1
102
RTVSPropertyOp30
 70
     1
102
RTVSPropertyOp31
 70
     1
102
RTVSPropertyOp32
 70
     1
  0
XRECORD
  5
69B
102
{ACAD_REACTORS
330
69A
102
}
330
69A
100
AcDbXrecord
280
     1
102
RTVSPropertyOp0
 70
     0
102
RTVSPropertyOp1
 70
     0
102
RTVSPropertyOp2
 70
     0
102
RTVSPropertyOp3
 70
     0
102
RTVSPropertyOp4
 70
     0
102
RTVSPropertyOp5
 70
     0
102
RTVSPropertyOp6
 70
     0
102
RTVSPropertyOp7
 70
     0
102
RTVSPropertyOp8
 70
     0
102
RTVSPropertyOp9
 70
     0
102
RTVSPropertyOp10
 70
     0
102
RTVSPropertyOp11
 70
     0
102
RTVSPropertyOp12
 70
     0
102
RTVSPropertyOp13
 70
     0
102
RTVSPropertyOp14
 70
     2
102
RTVSPropertyOp15
 70
     0
102
RTVSPropertyOp16
 70
     0
102
RTVSPropertyOp17
 70
     0
102
RTVSPropertyOp18
 70
     0
102
RTVSPropertyOp19
 70
     0
102
RTVSPropertyOp20
 70
     0
102
RTVSPropertyOp21
 70
     0
102
RTVSPropertyOp22
 70
     0
102
RTVSPropertyOp23
 70
     0
102
RTVSPropertyOp24
 70
     0
102
RTVSPropertyOp25
 70
     0
102
RTVSPropertyOp26
 70
     0
102
RTVSPropertyOp27
 70
     0
102
RTVSPropertyOp28
 70
     0
102
RTVSPropertyOp29
 70
     0
102
RTVSPropertyOp30
 70
     0
102
RTVSPropertyOp31
 70
     0
102
RTVSPropertyOp32
 70
     0
  0
XRECORD
  5
681
102
{ACAD_REACTORS
330
680
102
}
330
680
100
AcDbXrecord
280
     1
102
RTVSPropertyOp0
 70
     1
102
RTVSPropertyOp1
 70
     1
102
RTVSPropertyOp2
 70
     1
102
RTVSPropertyOp3
 70
     1
102
RTVSPropertyOp4
 70
     1
102
RTVSPropertyOp5
 70
     1
102
RTVSPropertyOp6
 70
     1
102
RTVSPropertyOp7
 70
     1
102
RTVSPropertyOp8
 70
     1
102
RTVSPropertyOp9
 70
     1
102
RTVSPropertyOp10
 70
     1
102
RTVSPropertyOp11
 70
     1
102
RTVSPropertyOp12
 70
     1
102
RTVSPropertyOp13
 70
     1
102
RTVSPropertyOp14
 70
     1
102
RTVSPropertyOp15
 70
     1
102
RTVSPropertyOp16
 70
     1
102
RTVSPropertyOp17
 70
     1
102
RTVSPropertyOp18
 70
     1
102
RTVSPropertyOp19
 70
     1
102
RTVSPropertyOp20
 70
     1
102
RTVSPropertyOp21
 70
     1
102
RTVSPropertyOp22
 70
     1
102
RTVSPropertyOp23
 70
     1
102
RTVSPropertyOp24
 70
     1
102
RTVSPropertyOp25
 70
     1
102
RTVSPropertyOp26
 70
     1
102
RTVSPropertyOp27
 70
     1
102
RTVSPropertyOp28
 70
     1
102
RTVSPropertyOp29
 70
     1
102
RTVSPropertyOp30
 70
     1
102
RTVSPropertyOp31
 70
     1
102
RTVSPropertyOp32
 70
     1
  0
XRECORD
  5
697
102
{ACAD_REACTORS
330
696
102
}
330
696
100
AcDbXrecord
280
     1
102
RTVSPropertyOp0
 70
     1
102
RTVSPropertyOp1
 70
     1
102
RTVSPropertyOp2
 70
     1
102
RTVSPropertyOp3
 70
     1
102
RTVSPropertyOp4
 70
     1
102
RTVSPropertyOp5
 70
     1
102
RTVSPropertyOp6
 70
     1
102
RTVSPropertyOp7
 70
     1
102
RTVSPropertyOp8
 70
     1
102
RTVSPropertyOp9
 70
     1
102
RTVSPropertyOp10
 70
     1
102
RTVSPropertyOp11
 70
     1
102
RTVSPropertyOp12
 70
     1
102
RTVSPropertyOp13
 70
     1
102
RTVSPropertyOp14
 70
     1
102
RTVSPropertyOp15
 70
     1
102
RTVSPropertyOp16
 70
     1
102
RTVSPropertyOp17
 70
     1
102
RTVSPropertyOp18
 70
     1
102
RTVSPropertyOp19
 70
     1
102
RTVSPropertyOp20
 70
     1
102
RTVSPropertyOp21
 70
     1
102
RTVSPropertyOp22
 70
     1
102
RTVSPropertyOp23
 70
     1
102
RTVSPropertyOp24
 70
     1
102
RTVSPropertyOp25
 70
     1
102
RTVSPropertyOp26
 70
     1
102
RTVSPropertyOp27
 70
     1
102
RTVSPropertyOp28
 70
     1
102
RTVSPropertyOp29
 70
     1
102
RTVSPropertyOp30
 70
     1
102
RTVSPropertyOp31
 70
     1
102
RTVSPropertyOp32
 70
     1
  0
XRECORD
  5
695
102
{ACAD_REACTORS
330
694
102
}
330
694
100
AcDbXrecord
280
     1
102
RTVSPropertyOp0
 70
     1
102
RTVSPropertyOp1
 70
     1
102
RTVSPropertyOp2
 70
     1
102
RTVSPropertyOp3
 70
     1
102
RTVSPropertyOp4
 70
     1
102
RTVSPropertyOp5
 70
     1
102
RTVSPropertyOp6
 70
     1
102
RTVSPropertyOp7
 70
     1
102
RTVSPropertyOp8
 70
     1
102
RTVSPropertyOp9
 70
     1
102
RTVSPropertyOp10
 70
     1
102
RTVSPropertyOp11
 70
     1
102
RTVSPropertyOp12
 70
     1
102
RTVSPropertyOp13
 70
     1
102
RTVSPropertyOp14
 70
     1
102
RTVSPropertyOp15
 70
     1
102
RTVSPropertyOp16
 70
     1
102
RTVSPropertyOp17
 70
     1
102
RTVSPropertyOp18
 70
     1
102
RTVSPropertyOp19
 70
     1
102
RTVSPropertyOp20
 70
     1
102
RTVSPropertyOp21
 70
     1
102
RTVSPropertyOp22
 70
     1
102
RTVSPropertyOp23
 70
     1
102
RTVSPropertyOp24
 70
     1
102
RTVSPropertyOp25
 70
     1
102
RTVSPropertyOp26
 70
     1
102
RTVSPropertyOp27
 70
     1
102
RTVSPropertyOp28
 70
     1
102
RTVSPropertyOp29
 70
     1
102
RTVSPropertyOp30
 70
     1
102
RTVSPropertyOp31
 70
     1
102
RTVSPropertyOp32
 70
     1
  0
XRECORD
  5
68F
102
{ACAD_REACTORS
330
68E
102
}
330
68E
100
AcDbXrecord
280
     1
102
RTVSPropertyOp0
 70
     1
102
RTVSPropertyOp1
 70
     1
102
RTVSPropertyOp2
 70
     1
102
RTVSPropertyOp3
 70
     1
102
RTVSPropertyOp4
 70
     1
102
RTVSPropertyOp5
 70
     1
102
RTVSPropertyOp6
 70
     1
102
RTVSPropertyOp7
 70
     1
102
RTVSPropertyOp8
 70
     1
102
RTVSPropertyOp9
 70
     1
102
RTVSPropertyOp10
 70
     1
102
RTVSPropertyOp11
 70
     1
102
RTVSPropertyOp12
 70
     1
102
RTVSPropertyOp13
 70
     1
102
RTVSPropertyOp14
 70
     1
102
RTVSPropertyOp15
 70
     1
102
RTVSPropertyOp16
 70
     1
102
RTVSPropertyOp17
 70
     1
102
RTVSPropertyOp18
 70
     1
102
RTVSPropertyOp19
 70
     1
102
RTVSPropertyOp20
 70
     1
102
RTVSPropertyOp21
 70
     1
102
RTVSPropertyOp22
 70
     1
102
RTVSPropertyOp23
 70
     1
102
RTVSPropertyOp24
 70
     1
102
RTVSPropertyOp25
 70
     1
102
RTVSPropertyOp26
 70
     1
102
RTVSPropertyOp27
 70
     1
102
RTVSPropertyOp28
 70
     1
102
RTVSPropertyOp29
 70
     1
102
RTVSPropertyOp30
 70
     1
102
RTVSPropertyOp31
 70
     1
102
RTVSPropertyOp32
 70
     1
  0
XRECORD
  5
691
102
{ACAD_REACTORS
330
690
102
}
330
690
100
AcDbXrecord
280
     1
102
RTVSPropertyOp0
 70
     1
102
RTVSPropertyOp1
 70
     1
102
RTVSPropertyOp2
 70
     1
102
RTVSPropertyOp3
 70
     1
102
RTVSPropertyOp4
 70
     1
102
RTVSPropertyOp5
 70
     1
102
RTVSPropertyOp6
 70
     1
102
RTVSPropertyOp7
 70
     1
102
RTVSPropertyOp8
 70
     1
102
RTVSPropertyOp9
 70
     1
102
RTVSPropertyOp10
 70
     1
102
RTVSPropertyOp11
 70
     1
102
RTVSPropertyOp12
 70
     1
102
RTVSPropertyOp13
 70
     1
102
RTVSPropertyOp14
 70
     1
102
RTVSPropertyOp15
 70
     1
102
RTVSPropertyOp16
 70
     1
102
RTVSPropertyOp17
 70
     1
102
RTVSPropertyOp18
 70
     1
102
RTVSPropertyOp19
 70
     1
102
RTVSPropertyOp20
 70
     1
102
RTVSPropertyOp21
 70
     1
102
RTVSPropertyOp22
 70
     1
102
RTVSPropertyOp23
 70
     1
102
RTVSPropertyOp24
 70
     1
102
RTVSPropertyOp25
 70
     1
102
RTVSPropertyOp26
 70
     1
102
RTVSPropertyOp27
 70
     1
102
RTVSPropertyOp28
 70
     1
102
RTVSPropertyOp29
 70
     1
102
RTVSPropertyOp30
 70
     1
102
RTVSPropertyOp31
 70
     1
102
RTVSPropertyOp32
 70
     1
  0
XRECORD
  5
687
102
{ACAD_REACTORS
330
686
102
}
330
686
100
AcDbXrecord
280
     1
102
RTVSPropertyOp0
 70
     1
102
RTVSPropertyOp1
 70
     1
102
RTVSPropertyOp2
 70
     1
102
RTVSPropertyOp3
 70
     1
102
RTVSPropertyOp4
 70
     1
102
RTVSPropertyOp5
 70
     1
102
RTVSPropertyOp6
 70
     1
102
RTVSPropertyOp7
 70
     1
102
RTVSPropertyOp8
 70
     1
102
RTVSPropertyOp9
 70
     1
102
RTVSPropertyOp10
 70
     1
102
RTVSPropertyOp11
 70
     1
102
RTVSPropertyOp12
 70
     1
102
RTVSPropertyOp13
 70
     1
102
RTVSPropertyOp14
 70
     1
102
RTVSPropertyOp15
 70
     1
102
RTVSPropertyOp16
 70
     1
102
RTVSPropertyOp17
 70
     1
102
RTVSPropertyOp18
 70
     1
102
RTVSPropertyOp19
 70
     1
102
RTVSPropertyOp20
 70
     1
102
RTVSPropertyOp21
 70
     1
102
RTVSPropertyOp22
 70
     1
102
RTVSPropertyOp23
 70
     1
102
RTVSPropertyOp24
 70
     1
102
RTVSPropertyOp25
 70
     1
102
RTVSPropertyOp26
 70
     1
102
RTVSPropertyOp27
 70
     1
102
RTVSPropertyOp28
 70
     1
102
RTVSPropertyOp29
 70
     1
102
RTVSPropertyOp30
 70
     1
102
RTVSPropertyOp31
 70
     1
102
RTVSPropertyOp32
 70
     1
  0
XRECORD
  5
67B
102
{ACAD_REACTORS
330
67A
102
}
330
67A
100
AcDbXrecord
280
     1
102
RTVSPropertyOp0
 70
     1
102
RTVSPropertyOp1
 70
     1
102
RTVSPropertyOp2
 70
     1
102
RTVSPropertyOp3
 70
     1
102
RTVSPropertyOp4
 70
     1
102
RTVSPropertyOp5
 70
     1
102
RTVSPropertyOp6
 70
     1
102
RTVSPropertyOp7
 70
     1
102
RTVSPropertyOp8
 70
     1
102
RTVSPropertyOp9
 70
     1
102
RTVSPropertyOp10
 70
     1
102
RTVSPropertyOp11
 70
     1
102
RTVSPropertyOp12
 70
     1
102
RTVSPropertyOp13
 70
     1
102
RTVSPropertyOp14
 70
     1
102
RTVSPropertyOp15
 70
     1
102
RTVSPropertyOp16
 70
     1
102
RTVSPropertyOp17
 70
     1
102
RTVSPropertyOp18
 70
     1
102
RTVSPropertyOp19
 70
     1
102
RTVSPropertyOp20
 70
     1
102
RTVSPropertyOp21
 70
     1
102
RTVSPropertyOp22
 70
     1
102
RTVSPropertyOp23
 70
     1
102
RTVSPropertyOp24
 70
     1
102
RTVSPropertyOp25
 70
     1
102
RTVSPropertyOp26
 70
     1
102
RTVSPropertyOp27
 70
     1
102
RTVSPropertyOp28
 70
     1
102
RTVSPropertyOp29
 70
     1
102
RTVSPropertyOp30
 70
     1
102
RTVSPropertyOp31
 70
     1
102
RTVSPropertyOp32
 70
     1
  0
XRECORD
  5
693
102
{ACAD_REACTORS
330
692
102
}
330
692
100
AcDbXrecord
280
     1
102
RTVSPropertyOp0
 70
     1
102
RTVSPropertyOp1
 70
     1
102
RTVSPropertyOp2
 70
     1
102
RTVSPropertyOp3
 70
     1
102
RTVSPropertyOp4
 70
     1
102
RTVSPropertyOp5
 70
     1
102
RTVSPropertyOp6
 70
     1
102
RTVSPropertyOp7
 70
     1
102
RTVSPropertyOp8
 70
     1
102
RTVSPropertyOp9
 70
     1
102
RTVSPropertyOp10
 70
     1
102
RTVSPropertyOp11
 70
     1
102
RTVSPropertyOp12
 70
     1
102
RTVSPropertyOp13
 70
     1
102
RTVSPropertyOp14
 70
     1
102
RTVSPropertyOp15
 70
     1
102
RTVSPropertyOp16
 70
     1
102
RTVSPropertyOp17
 70
     1
102
RTVSPropertyOp18
 70
     1
102
RTVSPropertyOp19
 70
     1
102
RTVSPropertyOp20
 70
     1
102
RTVSPropertyOp21
 70
     1
102
RTVSPropertyOp22
 70
     1
102
RTVSPropertyOp23
 70
     1
102
RTVSPropertyOp24
 70
     1
102
RTVSPropertyOp25
 70
     1
102
RTVSPropertyOp26
 70
     1
102
RTVSPropertyOp27
 70
     1
102
RTVSPropertyOp28
 70
     1
102
RTVSPropertyOp29
 70
     1
102
RTVSPropertyOp30
 70
     1
102
RTVSPropertyOp31
 70
     1
102
RTVSPropertyOp32
 70
     1
  0
ENDSEC
  0
EOF
